× Закрыть

Baby Please Dont Go (Aerosmith)

		
INTRO C/DISTORCION (GTR I & II)  
 
E|--------------15----------|(X6)  
B|--------------15----------|  
G|-------9-12------12-9-----|  
D|-------9-12------12-9-----|  
A|-7------------------------|  
E|-0------------------------|  
 
E|----0--------------------------------3-----------------------|  
B|----5---------------------3-----5----------5----------3------|  
G|-----------------4-----------------------------------------3-|  
D|-------------------------------------------------------------|  
A|-------------------------------------------------------------|  
E|-------------------------------------------------------------|  
 
E|----------3-------------0-----0-----------------------------|  
B|---3---5-----5----3-----5-----3-----------------------------|  
G|4--------------------------------4----2--0-----2------------|  
D|--------------------------------------------2---------2--2--|  
A|------------------------------------------------------------|  
E|------------------------------------------------------------|  
 
E|---------------------------------------------------------------|  
B|---------------------------------------------------------------|  
G|---------------------------------------------------------------|  
D|---2 0---------------------------------------------------------|  
A|---------2----0------------------------------------------------|  
E|------------------3------0-------------------------------------|  
 
GTR I  
E|-------------|----------------|------------------|--------------------------|  
B|-------------|----------------|------------------|--------------------------|  
G|------7------|-7------9-9-9-9-|----7-------------|------7------9-9-9-9------|  
D|------7------|-7------9-9-9-9-|----7-------------|------7------9-9-9-9------|  
A|------5------|-5------7-7-7-7-|----5-------------|------5------7-7-7-7------|  
E|0----------0-|-----0----------|--------0---------|---------0----------------|  
 
GTR II C/PALM MUTED  
E|--------------------------|--------------------------|  
B|--------------------------|--------------------------|  
G|--------------------------|--------------------------|  
D|--------------------------|--------------------------|  
A|--------------------------|--------------------------|  
E|00200020002000200020002000|20002000200020002000200020|  
 
VERSOS 1  
 
GTR I  
E|-----------------------------|-------------------------------|  
B|-----------------------------|-------------------------------|  
G|------------------7-7-7--7---|-------------7h9p7-------------|  
D|------------------7-7-7--7---|------------------9-7h9p7--9---|  
A|------------------9-9-9--9---|-------------------------7-7---|  
E|-----------------------------|-------------------------------|  
 
GTR II  
E|-----------------------------|-------------------------------|  
B|-----------------------------|-------------------------------|  
G|------------------7-7-7--7---|-------------7---7---7-----7---|  
D|------------------7-7-7--7---|-------------7---7---7-----7---|  
A|------------------9-9-9--9---|-------------9---9---9-----9---|  
E|-----------------------------|-------------------------------|  
 
GTR I  
E|----12----0---12----0-----|(X2)  
B|----12----0---12----------|  
G|--------------------------|  
D|--------------------------|  
A|--------------------------|  
E|--------------------------|  
 
GTR II  
E|--------------------------|--------------------------|  
B|--------------------------|--------------------------|  
G|--------------------------|--------------------------|  
D|--------------------------|--------------------------|  
A|--------------------------|--------------------------|  
E|00200020002000200020002000|20002000200020002000200020|  
 
VERSOS 2  
 
GTR I  
E|-----------------------------|-----------------------------------------------|  
B|-----------------------------|-----------------------------------------------|  
G|-----------------------------|----------------9p7----------------------------|  
D|---------------------7bf-----|--------------------9-9--7-9p7-8p7-------9-----|  
A|-----------------------------|-----------------------------------10-7--7-----|  
E|-----------------------------|-----------------------------------------------|  
 
GTR II  
E|-----------------------------|-------------------------------|  
B|-----------------------------|-------------------------------|  
G|------------------7-7-7--7---|-------------7---7---7-----7---|  
D|------------------7-7-7--7---|-------------7---7---7-----7---|  
A|------------------9-9-9--9---|-------------9---9---9-----9---|  
E|-----------------------------|-------------------------------|  
 
GTR I  
E|-----------0--------------|  
B|-----------0--------------|  
G|-----------0--------------|  
D|--------------------------|  
A|--------------------------|  
E|--------------------------|  
 
GTR I  
e|----12----0---12----0-----| (X2)  
B|----12----0---12----0-----|  
G|--------------------------|  
D|--------------------------|  
A|--------------------------|  
E|--------------------------|  
 
GTR II  
E|--------------------------|--------------------------|  
B|--------------------------|--------------------------|  
G|--------------------------|--------------------------|  
D|--------------------------|--------------------------|  
A|--------------------------|--------------------------|  
E|00200020002000200020002000|20002000200020002000200020|  
 
VERSOS 3  
 
GTR I  
E|------------------------------------|---------------------------------|  
B|------------------------------------|----------------------------9----|  
G|----------------9p7-----------------|-----------------9p7--------9----|  
D|----------------9p7--9p8p7--9-------|-----------------9p7-9p8p7-----9-|  
A|--------------------------7-7-------|--------------------------7----7-|  
E|------------------------------------|---------------------------------|  
 
GTR II  
E|-----------------------------|-------------------------------|  
B|-----------------------------|-------------------------------|  
G|------------------7-7-7--7---|-------------7---7---7-----7---|  
D|------------------7-7-7--7---|-------------7---7---7-----7---|  
A|------------------9-9-9--9---|-------------9---9---9-----9---|  
E|-----------------------------|-------------------------------|  
 
GTR I&II  
 
E|----0--------------------------------3-----------------------|  
B|----5---------------------3-----5----------5----------3------|  
G|-----------------4-----------------------------------------3-|  
D|-------------------------------------------------------------|  
A|-------------------------------------------------------------|  
E|-------------------------------------------------------------|  
 
E|----------3-------------0-----0-----------------------------|  
B|---3---5-----5----3-----5-----3-----------------------------|  
G|4--------------------------------4----2--0-----2------------|  
D|--------------------------------------------2---------2--2--|  
A|------------------------------------------------------------|  
E|------------------------------------------------------------|  
 
E|------------------------------------------------------------|  
B|------------------------------------------------------------|  
G|------------------------------------------------------------|  
D|---2 0------------------------------------------------------|  
A|---------2----0---------------------------------------------|  
E|------------------3------0----------------------------------|  
 
E|--------------------------------| (X4)  
B|--------------------------------|  
G|--------------------7/--7-7-7---|  
D|--------------------7/--7-7-7---|  
A|--------------------9/--9-9-9---|  
E|--------------------------------|  
 
C/PALM MUTED  
E|--------------------------------| (X5)  
B|---------------------------7----|  
G|------------------7-7-7-7--7----|  
D|------------------7-7-7-7--7----|  
A|------------------9-9-9-9-------|  
E|--------------------------------|  
 
E|-----------------------12-------| (X4)  
B|-----------------------12-------|  
G|-----------------------13-------|  
D|-----------------------14-------|  
A|-----------------------14-------|  
E|-----------------0-----12-------|  
 
A PARTIR DEL 12 TRASTE TOQUE LA GTR II  
From 12th fret on GTR II  
 
E G A C  
 
Gtr I FALTA LA PRIMERA PARTE DEL SOLO(haven't tabbed first part of the solo)  
 
B|---15bfp12-15bfp12-15bfp12-15bfp12-15bfp12-15bfp12-15bfp12-15bfp12|----------|  
D|------------------------------------------------------------------|----------|  
A|------------------------------------------------------------------|----------|  
E|------------------------------------------------------------------|-0-----0--|  
 
E|17fbr-17fbr-17fbr-17fbr-17fbr-17fbr-17fbr-17fbr-17fbr-17fbr|  
B|-----------------------------------------------------------|  
G|-----------------------------------------------------------|  
D|-----------------------------------------------------------|  
A|-----------------------------------------------------------|  
E|-----------------------------------------------------------|  
 
E|17---17-17-17-17-17-17-17-17-17-17-17-20-22fb-22fb--|  
B|----------------------------------------------------|  
G|----------------------------------------------------|  
D|----------------------------------------------------|  
A|----------------------------------------------------|  
E|----------------------------------------------------|  
 
 
Gtr I  
 
E|----12----0---12----0-----| (X4)  
B|----12----0---12----0-----|  
G|--------------------------|  
D|--------------------------|  
A|--------------------------|  
E|--------------------------|  
 
Gtr II  
E|--------------------------|--------------------------|  
B|--------------------------|--------------------------|  
G|--------------------------|--------------------------|  
D|--------------------------|--------------------------|  
A|--------------------------|--------------------------|  
E|00200020002000200020002000|20002000200020002000200020|  
 
Gtr I  
E|---|-15p14p12-15p14p12-15p14p12-15p14p12-15p14p12-15p14p12-15p14p12-15p14p12-|  
B|---|-------------------------------------------------------------------------|  
G|---|-------------------------------------------------------------------------|  
D|7fb|-------------------------------------------------------------------------|  
A|---|-------------------------------------------------------------------------|  
E|---|-------------------------------------------------------------------------|  
 
E|-15-----12----12-------------------------------------------------------------|  
B|------------------15---12-15--15--15b--15p12---------------------------------|  
G|---------------------------------------------14---14--14-12-1412-14brp12-----|  
D|-------------------------------------------------------------------------14/-|  
A|-----------------------------------------------------------------------------|  
E|-----------------------------------------------------------------------------|  
 
GTR II  
E|--------------------------|--------------------------|  
B|--------------------------|--------------------------|  
G|--------------------------|--------------------------|  
D|--------------------------|--------------------------|  
A|--------------------------|--------------------------|  
E|00200020002000200020002000|20002000200020002000200020|  
 
E|--------------------------------| (X4)  
B|--------------------------------|  
G|--7-5-5--7--5--7----------------|  
D|--7-5-5--7--5--7----------------|  
A|--------------------------------|  
E|--------------------------------|  
 
Gtr I  
E|----0--------------------------------3-----------------------|  
B|----5---------------------3-----5----------5----------3------|  
G|-----------------4-----------------------------------------3-|  
D|-------------------------------------------------------------|  
A|-------------------------------------------------------------|  
E|-------------------------------------------------------------|  
 
E|----------3-------------0-----0-----------------------------|  
B|---3---5-----5----3-----5-----3-----------------------------|  
G|4--------------------------------4----2--0-----2------------|  
D|--------------------------------------------2---------2--2--|  
A|------------------------------------------------------------|  
E|------------------------------------------------------------|  
 
E|------------------------------------------------------------|  
B|------------------------------------------------------------|  
G|------------------------------------------------------------|  
D|---2 0------------------------------------------------------|  
A|---------2----0---------------------------------------------|  
E|------------------3------0----------------------------------|  
 
Gtr II  
E|-------------------15--------------------------15-------------|  
B|-17-17--------15-17--17-15----------------15-17--17-15-17-17--|  
G|--------15-16--------------16-15---15-16----------------------|  
D|--------------------------------------------------------------|  
A|--------------------------------------------------------------|  
E|--------------------------------------------------------------|  
 
E|--------------------------------------------------------|  
B|-17-15-----15-------------------------------------------|  
G|------15p14--15-14-12--12-14-12-------------------------|  
D|---------------------14--------14-14--12-14-------------|  
A|--------------------------------------------14-12-------|  
E|-------------------------------------------------15p-0--|  
 
lETRA  
LYRIC  
 
chk chk chk-tah  
chk chk chk-tah

Видео для песни "Baby Please Dont Go":

 

Описание аккордов к песне (Генератор аккордов)

  • E ↓
    Аккорд E
  • G ↓
    Аккорд G
  • C ↓
    Аккорд C

 

Еще подборы:

 



Для связи с администратором: killger@gmail.com
©2013 - 2019 портал PesniGitara. Все тексты песен принадлежат их авторам. Копирование некоторых материалов портала только с разрешения администратора!