Girl (Afi)

		
bass  
Intro  
--------------------------------------------------------------  
---------------------------------------------------------9-10-  
---5-7-8-8-7-5---5-------------5-7-8-8-7-8-10-7-10-12-12------  
-5-------------3---3-5-5-7-8-5--------------------------------  
 
----------------------------------------------------  
----------------------------------------------------  
---5-7-8-8-7-5---5-------------5-7-8-8-7-5----------  
-5-------------3---3-5-5-7-8-5-------------8-7-3-5-  
 
verse (x5)  
----------------------------------------  
----------------------------------------  
-0-0-0-0-12-0-12--12-0-0-0-0-12-0-10-12-  
----------------------------------------  
 
then this:  
-----------------------------------------------------------------------------  
-----------------------------------------------------------------------------  
-0-0-0-0-10-10-7-7-8-8-7-7-5-5--------0-0-0-0-0-0-0/-12-12-12-12-12-12-12-12-  
-------------------------------8--3------------------------------------------  
 
chorus  
-------------------------------------------------------------  
---------------------------------------------------7---------  
-8-7-5-----------5-------5-7-8-7-6-----7-8-10-7-10---/12-12-  
-------8-8-7-5-3---3-5-5-----------8-8-----------------------  
 
-----------------------------------------------------------------------------------------  
-----------------------------------------------------------------------------------------  
-8-7-5-----------5-------5-7-8-7-6---------------------2/7-7-7-7-5-5-5-5-----------------  
-------8-8-7-5-3---3-5-5-----------8-7-5-3-0-0-0-0-0-0-------------------8-8-8-8-7-7-7-7-  
 
verse  
----------------------------------------  
----------------------------------------  
-0-0-0-0-12-0-12--12-0-0-0-0-12-0-10-12-  
----------------------------------------  
 
-------------------------------------------------------------------  
-------------------------------------------------------------------  
-0-0-0-0-12-0-12-14-14-15-15-14-14-12-12-10-10-12-12-10-10-8-8-7-7-  
-------------------------------------------------------------------  
(x3)  
----------------------------------------  
----------------------------------------  
-0-0-0-0-12-0-12--12-0-0-0-0-12-0-10-12-  
----------------------------------------  
 
then this:  
-----------------------------------------------------------------------------  
-----------------------------------------------------------------------------  
-0-0-0-0-10-10-7-7-8-8-7-7-5-5--------0-0-0-0-0-0-0/-12-12-12-12-12-12-12-12-  
-------------------------------8--3------------------------------------------  
 
chorus  
-------------------------------------------------------------  
---------------------------------------------------7---------  
-8-7-5-----------5-------5-7-8-7-6-----7-8-10-7-10---/12-12-  
-------8-8-7-5-3---3-5-5-----------8-8-----------------------  
 
------------------------------------------------------------------------------------  
------------------------------------------------------------------------------------  
-8-7-5-----------5-------5-7-8-7-6---------------------2/7-7-7-7-7-7-7-7-7--2--3--4-  
-------8-8-7-5-3---3-5-5-----------8-7-5-3-0-0-0-0-0-0------------------------------  
 
bridge  
-----------------------------------------------------------------------------  
-----------------------------------------------------------------------------  
-5-5-5-5-5-3-------------------2-3-4-5-5-5-5-5-3-3-3-3-3---------------------  
-------------0-1-2-3-3-3-3-3-5---------------------------3-2-3-4-5-5-5-5-5-7-  
 
---------------------------------------------------------------------  
---------------------------9-----------------------------------------  
-----7-7-8-10-10-7-7-10-10---12-12-12-12-10-10-10-10-8-8-8-8-7-7-7-7-  
-8-8-----------------------------------------------------------------  
 
----------------------------  
----------------------------  
-5-5-5-5-5-3----------------  
-------------0-1-2-3--------  
 
quieter part  
----------------------------  
----------------------------  
-0--------------------------  
----------------------------  
 
------------------------------------------------------------------------------------  
------------------------------------------------------------------------------------  
-/12-12-12-12-12-12-12--12-12--12-12-12-12-10-10-10-10-10-10-10--10-10--10-10-10-10-  
------------------------------------------------------------------------------------  
 
----------------------------------------------------------------------  
----------------------------------------------------------------------  
-8-8-8-8-8-8-8--8-8--8-8-8-8-10-10-10-10-10-10-10--10-10--10-10-10-10-  
----------------------------------------------------------------------  
 
------------------------------------------------------------------------------------  
------------------------------------------------------------------------------------  
-12-12-12-12-12-12-12--12-12--12-14-14-14-10-10-10-10-10-10-10--10-10--10-12-12-12--  
------------------------------------------------------------------------------------  
 
--------------------------------------------------------------  
--------------------------------------------------------------  
-9-9-9-9-9-9-9--9-9--9-10-10-10-8-8-8-8-8-8-8-8-8-8-8-8-8-8-5-  
--------------------------------------------------------------  
 
----------------------------------------------------------------------  
---------------------------------14-14-14-14-14-14-14-14-14-14-14-14-14-14-14-14-  
-7-7-7-7-7-7-7-7-7-7-7-7-7-7-7-7-------------------------------------------------  
---------------------------------------------------------------------------------  
 
faster chorus  
-----------------------------------------------------------  
-----------------------------------------------------------  
-8-7-5-----------5-------5-7-8-7-6-----7-8-10-7-10-12-12-7-  
-------8-8-7-5-3---3-5-5-----------8-8---------------------  
 
-------------------------------------------------------------------------------------  
-------------------------------------------------------------------------------------  
-8-7-5-----------5-------5-7-8-7-6---------------------2/7-7-7-7-7--7-7-7-7-7--7-7-7-  
-------8-8-7-5-3---3-5-5-----------8-7-5-3-0-0-0-0-0-0-------------------------------  
 
repeat Intro

Видео для песни "Girl":

 

Описание аккордов к песне (Генератор аккордов)

 

Еще подборы:

 

Отзывы и комментарии:


Для связи с администратором: killger@gmail.com
©2013 - 2016 портал PesniGitara. Все тексты песен принадлежат их авторам. Копирование некоторых материалов портала только с разрешения администратора!