Кто украл мою звезду (Агата Кристи)

		

Intro: Hm Hm Em F#

G|----------------------------------------|

D|---0-2-5-4-0-2---2-5-4-0-2---|

A|---0-2-5-4-0-2----2-5-4-0-2---| } x2

E|-----------------------------------------|

G|---0-2-5-4-0-2---2-5-4-0-2---|

D|---0-2-5-4-0-2---2-5-4-0-2---|

A|-----------------------------------------|

E|-----------------------------------------|

G|---0-4-4-4-2-4---4-4-4-2-4---|

D|---0-4-4-4-2-4---4-4-4-2-4---|

A|-----------------------------------------|

E|-----------------------------------------|

Hm

Я гляжу на небеса

Em F#

Напрягая все глаза

Hm

А на небе ни звезды

Em F#

В мире только я и ты

Hm

И только небо знает правду

О том, как я тебя хочу,

Em

О том, как я еще не верю

F#

В то, что скоро полечу

И только небо знает правду,

Кто украл мою звезду

Только небо знает правду,

Но не скажет никому

Потерявшие мечту

Мы сидим на берегу

А у реки нет воды

В мире только я и ты

Если в небе ни звезды

В мире только я и ты

В океане нет воды

В мире только я и ты

Видео для песни "Кто украл мою звезду":

 

Описание аккордов к песне (Генератор аккордов)

  • Hm ↓
    Аккорд Hm
  • Em ↓
    Аккорд Em

 

Еще подборы:

 

Отзывы и комментарии:


Для связи с администратором: killger@gmail.com
©2013 - 2016 портал PesniGitara. Все тексты песен принадлежат их авторам. Копирование некоторых материалов портала только с разрешения администратора!