Звездное гестапо (Агата Кристи)

		

C

e|-----------------------------7~--|

ле -

C

e|-6---7---------------------------|

b|---------8---9-------------------|

g|-----------------9---------------|

- гионеры млечного пути серь-

C G#5+

e|-6---7---------------------------|

b|---------8---9-------------------|

g|-----------------9---------------|

- зные и сильные ребята ле -

C#m Am

e|11--12---------------------------|

b|--------12--13-------------------|

g|-----------------9---------------|

- тит корабль звездного гестапо со

Bsus4 E

e|-----------------------------7---|

b|---------------------------------|

g|-9---------------9---------------|

станции космической зари на

C

e|-6---7---------------------------|

b|---------8---9-------------------|

g|-----------------9---------------|

голове фуражка на груди блис-

C G#5+

e|-6---7---------------------------|

b|---------8---9-------------------|

g|-----------------9---------------|

- тают золотые аксельбанты о -

C#m Am

e|11--12---------------------------|

b|--------12--13-------------------|

g|-----------------9---------------|

- ни такие щеголи и франты со

Bsus4 E

g|-9---------------9---------------|

станции космической зари мя -

Am

g|-5---------------5---------------|

- тежный флот Юпитера разбит раз -

Am G#

e|-8---------------8---------------|

- давлен Марс унижена Венера ) же -

Am

g|-5---------------5---------------|

- лезной поступи легионера все -

Am G#

e|-8---------------8---------------|

- ленная боится и дрожит а

Am Fm

e|-8--10---------------------------|

b|--------12--13-------------------|

g|----------------10---------------|

кто от них укрылся на луне жи -

Am Fm

e|-8--10---------------------------|

b|--------12--13-------------------|

g|----------------10---------------|

- вым таки оттуда не вернулся сог -

Am Bbsus2

e|13--15--11--13-------------------|

b|----------------13---------------|

- ласно утановленного курса ко -

Am Fm G

e|----------------13------12-------|

b|13--15--12--13-------------------|

- рабль приближается к земле

C

b|13-------------------------------|

e|-6---7---------------------------|

b|---------9--10-------------------|

g|-----------------9---------------|

C G#5+

e|-6---7---------------------------|

b|---------9--10-------------------|

g|-----------------9---------------|

C#m Am

b|-4---5-----------5---------------|

g|---------5---6-------------------|

Bsus4 E

b|~5--------------~5---------------|

на

C

d|-5---------------5---------------|

станцию космической зари док -

C G#5+

d|-5---------------6---------------|

- ладывает звездное гестапо: "мы

C#m Am

d|-6---------------7---------------|

приземлились выпустили трапы и

Bsus4 E

g|-----------------4---------------|

d|-7-------------------------------|

приступаем к плану номер три не -

Am

g|-5---------------5---------------|

- слышны и невидимы в ночи ни -

Am G#

e|-8---------------8---------------|

- чем не примечательной туземке шпри-

Am

g|-5---------------5---------------|

- цами вводим золотые пенки ма -

Am G#

e|-8---------------8---------------|

- гического Млечного пути про -

Am Fm

d|-7---------------6---------------|

- мчатся мимо хлопотные дни и

Am Fm

d|-7---------------6---------------|

радостно пуская в небо слюни ро -

Am Bbsus2

d|-7---------------8---------------|

- дится на земле последний фюрер сын

Am Fm G

e|----------------13------12-------|

b|---------------------------------|

g|---------------------------------|

d|-7-------------------------------|

космоса и маленькой земли!"

C

b|13-------------------------------|

e|-6---7---------------------------|

b|---------9--10-------------------|

g|-----------------9---------------|

C G#5+

e|-6---7---------------------------|

b|---------9--10-------------------|

g|-----------------9---------------|

C#m Am

b|-4---5-----------5---------------|

g|---------5---6-------------------|

Bsus4 E

b|~5--------------~5---------------|

Am

b|-7---9---------------------------|

g|---------9--11-------------------|

d|----------------10---------------|

Am G#

b|-7---9---------------------------|

g|---------9--11-------------------|

d|----------------10---------------|

Am

b|-7---9---------------------------|

g|---------9--11-------------------|

d|----------------10---------------|

Am G#

b|-7---9----------13---------------|

g|---------9--11-------------------|

Am Fm

b|13--15--13--15-------------------|

g|----------------10---------------|

g|-5---7---4---5-------------------|

d|-----------------3---------------|

Am Fm

e|----------------13---------------|

b|13--15--12--13-------------------|

b|-----------------6---------------|

g|-5---7---4---5-------------------|

Am Bbsus2

e|14--16--12--14-------------------|

b|----------------13---------------|

b|-7---9---------------------------|

g|---------9--11-------------------|

d|----------------10---------------|

Am Fm G

e|----------------13------12-------|

b|13--15--12--13-------------------|

b|-----------------6-------5-------|

g|-5---7---4---5-------------------|

C

b|13-----------------------7-------|

g|~5-------------------------------|

C

e|-6---7---------------------------|

b|---------8---9-------------------|

g|-----------------8---------------|

e|-----------------6---7-----------|

b|-------------------------8---9---|

C

g|-9-------------------------------|

Видео для песни "Звездное гестапо":

 

Описание аккордов к песне (Генератор аккордов)

  • C ↓
    Аккорд C
  • C#m ↓
    Аккорд C#m
  • Am ↓
    Аккорд Am
  • Fm ↓
    Аккорд Fm

 

Еще подборы:

 

Отзывы и комментарии:


Для связи с администратором: killger@gmail.com
©2013 - 2016 портал PesniGitara. Все тексты песен принадлежат их авторам. Копирование некоторых материалов портала только с разрешения администратора!