грибок стопы (Alai Oli)

		
D Hm G A (тональность оригинальная)  
 
 бас по-разному играть можно)  
 примерно так:  
 
 5 ---------4--5-----5--5--4-----------------------------  
 6 ---5--7---------------------7--7-7--5--3----0-3-4-5  
 
 последнее вроде не правильно, но мне нравится)  
 
 для тех, кто хочет играть одновременно и бас и ритм:  
 ------------------ D--------------------Hm--  
 1----------------5-5-------------------2-2---  
 2----------------7-7-------------------3-3---  
 3----------------7-7-------------------4-4---  
 4----------------7-7-------------------4-4---  
 5---------4--5--5-5-----5--5--4--2--2-2---  
 6--5--7---------х----------------------х----  
 
 ------------------G------------------------A--  
 1----------------3-3---------------------5-5--  
 2----------------3-3---------------------5-5--  
 3----------------4-4---------------------6-6--  
 4----------------5-5---------------------7-7--  
 5--2--2--0------5-5---------------------7-7--  
 6-------------3--3-3---3(0)--3--4--5--5-5--  
 
 3(0) - 2 варианта, можно играть и на 3 ладу и открытую, не могу понять что лучше звучит)  
 
 когда, просто надо провести по струнам вниз-вверх  
 
 без отпусков работал я двенадцать лет но вот жена купила в сочи мне билет  
 на регистрацию я не опоздал и свой багаж я в целлофан упаковал  
 прошл я на таможенный контроль и там увидел я для обуви лоток  
 я снял ботинки и снял носки и в тот момент.... я подхватил грибок стопы  
 
 грибок стопы грибок стопы грибок стопы грибок стопы  
 
 сосед уехал на неделю в уренгой абонемент в бассейн отдал мне свой  
 и я подумал не пропадать добру собрал шапочку и плавки поутру  
 
 грибок стопы грибок стопы с собой в бассейн я захвачу грибок стопы  
 грибок стопы грибок стопы  
 
 без отпусков учился я шестнадцать лет и вот купил себе я в на Бали билет  
 когда я ехал я тогда не знал поэтому гандоны я с собой не брал  
 уже в отеле увидел я е и сразу захотелось мне с ней в уголок  
 е обнял потом взасос и в тот момент.. я подхватил хламидиоз

Видео для песни "грибок стопы":

 

Описание аккордов к песне (Генератор аккордов)

  • D ↓
    Аккорд D
  • Hm ↓
    Аккорд Hm
  • G ↓
    Аккорд G

 

Еще подборы:

 

Отзывы и комментарии:


Для связи с администратором: killger@gmail.com
©2013 - 2016 портал PesniGitara. Все тексты песен принадлежат их авторам. Копирование некоторых материалов портала только с разрешения администратора!