× Закрыть

Кордоба (Албениз Исаак)

		
Строй: DADGBE  
Размер: 3/4  
 
E|---|---|---|  
B|---|---|---|  
G|---|---|---|  
D|---|---|---|  
A|-3-|-3-|-3-|  
D|-3-|-3-|-3-|  
dolce  
 
E|---|-3-|---------3-|  
B|---|-3-|-3-------3-|  
G|---|-3-|-3-------3-|  
D|---|---|-3---------|  
A|-3-|-3-|-----------|  
D|-3-|-3-|-----------|  
 
E|-6-------5-------3-|-5-------1-|-----------------3-|  
B|-3-------5-------3-|-5-------3-|-3-------5-------3-|  
G|---------5-------3-|-5-------2-|-2-------3-------3-|  
D|-------------------|-----------|-3-------5---------|  
A|-3-----------------|-----------|-------------------|  
D|-3-----------------|-----------|-------------------|  
 
E|-5-|-3-|-3-|-3-|---------3-|-6-------4-------3-|  
B|-5-|-3-|-3-|-2-|-2-------2-|---------5-------2-|  
G|-5-|-3-|-3-|-3-|-3-------3-|-3-------5-------3-|  
D|---|---|---|---|-3---------|-------------------|  
A|---|-3-|-3-|-3-|-----------|-------------------|  
D|---|-3-|-3-|-3-|-----------|-------------------|  
 
E|-4---------|-----------------3-|-4-|-3-|-3-|  
B|-5-------6-|-2-------5-------2-|-5-|-2-|-2-|  
G|-5-------5-|-1-------3-------3-|-5-|-3-|-3-|  
D|---------6-|-3-------5---------|---|---|---|  
A|-----------|-------------------|---|-3-|-3-|  
D|-----------|-------------------|---|-3-|-3-|  
 
E|-0----------|-----------|  
B|------------|-----------|  
G|-9----------|-----------|  
D|-8-------11-|-10------8-|  
A|-10---------|-----------|  
D|------------|-----------|  
 
E|-------------------|-4-----------------|-4-|  
B|-6-----------------|-6-----------------|-3-|  
G|-5-----------------|-5-----------------|-1-|  
D|-6-------5---------|-------------------|---|  
A|-----------------8-|-6-------4-------3-|-1-|  
D|-------------------|-------------------|---|  
 
E|-4-|-4-|-4-|-5-|-5-|-10--------------8--|  
B|-3-|-3-|-3-|-6-|-6-|-10--------------10-|  
G|-1-|-1-|-1-|-7-|-7-|-10--------------9--|  
D|---|---|---|-7-|-7-|-12--------------7--|  
A|-1-|-1-|-1-|-0-|-0-|--------------------|  
D|---|---|---|---|---|--------------------|  
 
E|-10------8--|-10------12------13-|-10------8-------10-|  
B|-10------10-|-10------13------10-|-11------10------11-|  
G|-10------9--|-10------12------10-|-10------10------10-|  
D|-12------7--|-12------10---------|-8---------------8--|  
A|------------|--------------------|---------8----------|  
D|------------|--------------------|--------------------|  
 
E|-11--------------10-|-8-------10------8--|------------------|  
B|-----------------11-|-10------11------10-|-11------------10-|  
G|-12--------------10-|-10--------------10-|-9-------------9--|  
D|-----------------8--|---------8----------|-12------------11-|  
A|--------------------|-8---------------8--|-10------------12-|  
D|-13-----------------|--------------------|------------------|  
 
E|------------|---|-13--------------12-|-13------12------10-|  
B|-8-------10-|10-|-10--------------13-|-10------13------10-|  
G|-9-------9--|9--|-10--------------12-|-10------12------10-|  
D|-12------11-|11-|-----------------10-|---------10------12-|  
A|-13------12-|12-|--------------------|--------------------|  
D|------------|---|--------------------|--------------------|  
 
E|-8-------------10-|-8-------6-------5-|-3---------------1-|  
B|-10------------10-|-10------6-------6-|-3---------------3-|  
G|-9-------------10-|-9-------7-------5-|-3---------------2-|  
D|-7-------------12-|-7-------8---------|-5---------------0-|  
A|------------------|-----------------8-|-------------------|  
D|------------------|-------------------|-------------------|  
 
E|-3-------1-------0-|-0---------------0-|-0-|0--|  
B|-3-------3-------3-|-2-----------------|-2-|2--|  
G|-3-------2-------1-|-----------------7-|---|---|  
D|-5-------0---------|-2---------------8-|-2-|2--|  
A|-----------------1-|-0---------------7-|-0-|0--|  
D|-------------------|-----------------6-|---|---|  
 
E|-13°---------12°-|-13°-----12°-----10°-|-8°--------------10°-|  
B|-10--------------|-10--------------10--|-----------------10--|  
G|-10----------12--|-10------12------10--|-9---------------10--|  
D|-------------10--|---------10----------|-7-------------------|  
A|-----------------|---------------------|---------------------|  
D|-----------------|---------------------|---------------------|  
 
E|-8°------6°------5°|-3°--------------1°-|-3°------1°------0°-|  
B|-------------------|--------------------|--------------------|  
G|-9-------7-------5-|-3---------------2--|-3-------2-------1--|  
D|-7-------8---------|-5---------------0--|-5-------0----------|  
A|-----------------8-|--------------------|-----------------1--|  
D|-------------------|--------------------|--------------------|  
 
E|5°--------------5°-|--------5-----------1-|---1-----0--------|  
B|3---------------2--|------6-----6-------3-|---3-----3------2-|  
G|2---------------0--|----7-------7-------2-|---1-----1------0-|  
D|-------------------|--7---------7---------|------------------|  
A|0------------------|5---------------4---3-|2-----1-----0-----|  
D|-------------------|----------------------|------------------|  
 
E|--------5---------1-|---1-----0-------|1-------3-------5-----|  
B|------6----6------3-|---3-----3-----2-|----3-------3-------6-|  
G|----7------7------2-|---1-----1-----0-|----2-------2-------7-|  
D|--7--------7--------|-----------------|0---------------------|  
A|5-------------4---3-|2-----1-----0----|----------------------|  
D|--------------------|-----------------|----------------------|  
 
E|12----------------|10------8-------10-----|5-----------------|  
B|---10----10----10-|----10------10------10-|---8-----8------8-|  
G|---12----12----12-|----10------10------10-|---6-----6------6-|  
D|------------------|0----------------------|------7-----------|  
A|------12----0-----|----------------0------|7-----------0-----|  
D|11----------------|-----------------------|------------------|  
 
E|--------------------5---|----3-------5-------3-|  
B|------------6-------6---|----5---------------5-|  
G|----7-------------------|----------------------|  
D|----7-------7-----------|----------------------|  
A|8-------7-------5-------|4-----------2---4-----|  
D|------------------------|----------------------|  
 
E|----1-------5-------0---|----------------------|  
B|------------6-------3---|----2-------2---------|  
G|----2---------------1---|----2-------3---2---0-|  
D|0-----------------------|--------5-------3---2-|  
A|--------3-------1-------|0---------------------|  
D|------------------------|----------------------|  
 
E|1-------3------5----|12---------------|10------8------10-----|  
B|----3-------3-----3-|----10---10---10-|----11-----11------11-|  
G|----2-------2-----2-|----9----9----9--|----10-----10------10-|  
D|0-------------------|-----------------|----------------------|  
A|--------------------|-----------------|----------------------|  
D|--------------------|10---------------|8---------------------|  
 
E|--------------------|3-----5-----3----|8-------6-------5-----|  
B|----6-------6-----6-|---2-----2-----2-|----6-------6-------6-|  
G|----5-------5-----5-|3----------------|--------5-------8-----|  
D|--------------------|-----------------|7---------------------|  
A|--------------------|-----------------|----------------------|  
D|3-------------------|-----------------|----------------------|  
 
E|---0-7----12---|12------10-----8-----|13------12------8------|  
B|9-------5------|------------9-----10-|----12------10------10-|  
G|-------------9-|----9-------------9--|----13--------------9--|  
D|12-------------|10------9------7-----|12------10------7------|  
A|---------------|---------------------|-----------------------|  
D|---------------|---------------------|-----------------------|  
 
E|10------12------8-----|8-----------7-----|5------------------|  
B|----9-------10------7-|----9---9-------9-|----5-----5------5-|  
G|----9-----------------|----7---7-------7-|----6-----6------6-|  
D|9-------10------------|------------------|-------------------|  
A|----------------6-----|7-----------------|0------------------|  
D|----------------------|------------------|-------------------|  
 
E|----0-------0-------0-|  
B|8-------10------11----|  
G|----------------------|  
D|5-------7-------8-----|  
A|0---------------------|  
D|----------------------|  
 
E|12-----------------|10------8-------10------|5---------------|  
B|----11----11----11-|----11------11------11--|----5----5----5-|  
G|----12----12----12-|----12------12------12--|----6----6----6-|  
D|14-----------------|------------------------|7---------------|  
A|0------------------|------------------------|----------------|  
D|-------------------|------------------------|----------------|  
 
E|----0------0------0-|13----------12-----|10------8----10-----|  
B|8------10-----11----|----11--11------11-|----11----11-----11-|  
G|--------------------|----12--12------12-|----12----12-----12-|  
D|5------7------8-----|-------------------|--------------------|  
A|0-------------------|0------------------|--------------------|  
D|--------------------|-------------------|--------------------|  
 
E|5---------------------|-----------5-----8-|---------------8--|  
B|----5-------5-------5-|----6------6-----6-|---5-----8-----8--|  
G|----6-------6-------6-|----5------------5-|---5-----5--------|  
D|7---------------------|7-------5--7--5--7-|5--7--5--------10-|  
A|----------------------|-----------8-------|---------8--7-----|  
D|----------------------|-------------------|------------------|  
 
E|----1-------6-------1-|---0-----5-----3---|1---0-----------5-|  
B|----------------------|-------------------|-------3--5--6----|  
G|----3-------3-------3-|---2-----2-----2---|2-----------------|  
D|0-----------0---2---0-|---0---------------|0-----------------|  
A|--------4-------------|4-----4--2--0------|-------------4--3-|  
D|----------------------|-------------------|------------------|  
 
E|0---1---0-----------0-|-------------------|------------------|  
B|3-----------3---2-----|3--5--3----------3-|2-----------------|  
G|1---------------0-----|3---------5---3----|2-----------------|  
D|----------------------|3------------------|5-----------------|  
A|2-------1-------0-----|-------------------|0---1--0-----0----|  
D|----------------------|6------------------|----------6-----2-|  
 
E|0-----------------------|0-------1-------3-----|  
B|----3-3-3b--3-------3---|------3-----3-------3-|  
G|----3-3-3---3-------3---|------------3-------3-|  
D|----2b2b2---2b------2---|----2-------2-------2-|  
A|0---------------0-------|0---------------0-----|  
D|------------------------|----------------------|  
 
E|0---------------1-------|----------------------|  
B|----3-3-3b--3-------3---|3-------2-------------|  
G|----3-3-3---3-------3---|------2-----2-------2-|  
D|----2b2b2---2b------2---|------------2-------2-|  
A|0---------------0-------|0---4-----------0-----|  
D|------------------------|----------------------|  
 
E|1-------0-------1-----|0-------0-------0------|0--------0----|  
B|1-------1-------1-----|1-------3-------2------|3--------3----|  
G|2-------0-------2-----|0-------1-------2------|3--------3----|  
D|----------------------|2---2---2---2---2---2--|2--------2----|  
A|----3-------3-------3-|3b--3b--1b--1b--0b--0b-|--------------|  
D|3---------------------|-----------------------|6--6--6-----6-|  
 
E|0-------------------5°-|----------------------|--------------|  
B|2----------------------|----------------------|------0---2---|  
G|-----------------------|--------0-------2-----|2-----0---0---|  
D|------------7{---------|4---------------------|5-------------|  
A|0---0------------------|0---0-------0-------0-|4--4----0---0-|  
D|-----------------------|0---------------------|2-------------|  
 
E|2-------3-------5-----|----------------------|---------------|  
B|3---------------------|2-------3-------5-----|---------------|  
G|2-------0-------2-----|0---------------------|2---------2----|  
D|0---------------------|--------0-------2-----|4--------------|  
A|----0-------0-------0-|----0-------0-------0-|0--0---0-----0-|  
D|4---------------------|2---------------------|0--------------|  
 
E|----------------------|----------------------|---------------|  
B|----------------------|--------0-------1-----|0--------------|  
G|2---------------2-----|2-------0-------0-----|0---------2----|  
D|4---------------------|5---------------------|2--------------|  
A|3---0-------0-------0-|4---4-------0-------0-|4--0---0-----0-|  
D|1---------------------|2---------------------|---------------|  
 
E|2-------3-------5-----|  
B|3---------------------|  
G|2-------0-------2-----|  
D|4---------------------|  
A|0---0-------0-------0-|  
D|0---------------------|  
 
E|5-------7------9----|10----12----14---|9-------10------12----|  
B|2-------------------|10---------------|----------------------|  
G|2-------4------6----|------9-----11---|12--------------9-----|  
D|5-------------------|12---------------|11------12------------|  
A|0---0-------0-----0-|9--0-----0-----0-|7---0-------0-------0-|  
D|2-------------------|-----------------|----------------------|  
 
E|-------------------|5-----------------|5-------7-------9-----|  
B|10-----------------|4-----------------|2-------0-------------|  
G|11-----------------|-------------2----|2---------------6-----|  
D|-------------7-----|4-----------------|5---------------------|  
A|0---0----0-------0-|0---0----0------0-|4---0-------0-------0-|  
D|0------------------|1-----------------|2---------------------|  
 
E|7--------5-----|0---------------------|----------------------|  
B|0--------------|----1-1-1b--1-------1-|--------1-------3-----|  
G|6--------2-----|----0-0-0---0-------0-|------0-----0-------0-|  
D|5--------------|----2-2-2---2-------2-|------------2-------2-|  
A|7--0--0------0-|----0b0b0---0b--0-----|----0-----------0-----|  
D|---------------|0-----	

Видео для песни "Кордоба":

 

Описание аккордов к песне (Генератор аккордов)

 

Еще подборы:

 



Для связи с администратором: killger@gmail.com
©2013 - 2018 портал PesniGitara. Все тексты песен принадлежат их авторам. Копирование некоторых материалов портала только с разрешения администратора!