× Закрыть

Я люблю тебя до слез (Александр Серов)

		
Вступление:
   Am               F     E/G#        C          F       Dm   E7
E|---------0-5-7-8--3--1--0---0-12-10-8--10-12---5--7-8----5--------4-|
B|-----0-1----------------------------8----------6-------6--------3---|
G|------------------------------------9----------5-------7------4-----|
D|---2--------------------------------10---------7-------7------------|
A|-0----------------------------------10---------8-------5------------|
E|------------------1-----4-----------8-----------------------0-------|

Бой: Am | F/A | E/G# | C/G | F | Dm | E | E

Соло:
E|-/8-10-8-------7-8-10--------------------------------------------------------|
B|----------------------------/10--10--12-13---------10------------------------|
G|---------9-10----------7-5------------------10--12----------10--------9------|
D|------------------------------------------------------12-14----10-12-----/14-|

Am         F/A     E/G#          С/G
Подними глаза в рождественское небо,
F           Dm    E              Am
Загадай все то, о чем мечтаешь ты,
Dm             G E/G#              Am  Am/G
В жизни до тебя  я так счастлив не был,
Bm7-5         Bdim  C6          F
Для тебя одной,     их так любишь ты,
Bm7-5   E    Am
Эти белые цветы.

		          Dm
	Я люблю тебя до слез, 
	E7     E7/G#                 Am
	Каждый вздох - как в первый раз,
	A7                   Dm  Dm/C
	Вместо лжи красивых фраз
	G7             C  E
	Это облако из роз.
	E                Dm
	Лепестками белых роз 
	E7   E7/G#     Am
	Наше ложе застелю,
	      Am/C        B7 Dm
	Я люблю тебя до слез,
	E7         Am
	Без ума люблю!

Проигрыш.

Белизной твоей манящей нежной кожи,
Красотой твоих божественных волос
Восхищаюсь я, ты мне всего дороже,
Все у нас с тобой только началось,
Я люблю тебя до слез.

	Припев

Модуляция в Bbm

Проигрыш: D#m | F | Bbm 

E|----------------------------------------------------------------------16-14~~~-|
B|--------18b19r18~~--13-14-16~~~-------16b18r16----------------16b18------------|
G|------------------------------------------------15-17-16b18--------------------|
D|--15-15-------------------------15-15------------------------------------------|

        Bb7                  D#m  
	Вместо лжи красивых фраз
	G#  G#7         C#  F
	Это облако из роз.
	F                 D#m
	Лепестками белых роз 
	F               Bbm
	Я наше ложе застелю,
	   Bbm           C D#m
	Я люблю тебя до слез,
	F          Bbm
	Без ума люблю!
	     C#6     C   D#m
	Я люблю тебя до слез,
	F          Bbm
	Без ума люблю!

Кода: Bbm Bb+ | F C#6 | F# Fm7 | D#m Dm7 | F | Bbm | Bbm

E|--9-11-9-----------8-9-11----------------------------------------------------|
B|----------------------------------/11~~--11--13-14-------11-10-11-13-14-11~~-|
G|----------10-11~~-----------8-6---------------------11~----------------------|

Видео для песни "Я люблю тебя до слез":

 

Описание аккордов к песне (Генератор аккордов)

  • Am ↓
    Аккорд Am
  • F ↓
    Аккорд F
  • C ↓
    Аккорд C
  • Dm ↓
    Аккорд Dm
  • E7 ↓
    Аккорд E7
  • C/G ↓
    Аккорд C/G
  • E ↓
    Аккорд E
  • G ↓
    Аккорд G
  • Am/G ↓
    Аккорд Am/G
  • C6 ↓
    Аккорд C6
  • A7 ↓
    Аккорд A7
  • Dm/C ↓
    Аккорд Dm/C
  • G7 ↓
    Аккорд G7
  • Am/C ↓
    Аккорд Am/C
  • B7 ↓
    Аккорд B7
  • D#m ↓
    Аккорд D#m
  • G# ↓
    Аккорд G#
  • G#7 ↓
    Аккорд G#7
  • C# ↓
    Аккорд C#
  • F# ↓
    Аккорд F#
  • Fm7 ↓
    Аккорд Fm7
  • Dm7 ↓
    Аккорд Dm7

 

Еще подборы:

 



Для связи с администратором: killger@gmail.com
©2013 - 2018 портал PesniGitara. Все тексты песен принадлежат их авторам. Копирование некоторых материалов портала только с разрешения администратора!