× Закрыть

Only One Reason (All About Eve)

		
#----------------------------------PLEASE NOTE---------------------------------#
#This file is the author's own work and represents their interpretation of the #
#song. You may only use this file for private study, scholarship, or research. #
#------------------------------------------------------------------------------##
#

Subject: TAB:Only One Reason By All About Eve
Date: Wed, 14 Aug 96 10:47:02 BST
From: Wayne Ellis 


                       'Only One Reason' by All About Eve
		      ------------------------------------

>From the album 'Scarlet'
Transcribed by Wayne Ellis 	email ellis_w_wayne@bt-web.bt.co.uk

All guitars are tuned as follows: E A D G B E  (from low to high)

Intro (Guitar 1, Guitar 2)
--------------------------

  Em7	   Am7	     Em7      Am7	Em7	 Am7	   Am9	     n/c	    
 Guitar 1
E------------------|------------------|------------------|------------------|
B-8-----8--7-----7-|-8-----8--7-----7-|-8-----8--7-----7-|-------0----------|
G-----7--------7---|-----7--------7---|-----7--------7---|-----5---------7--|
D---9--------7-----|---9--------7-----|---9--------7-----|---7------(/)9----|
A------------------|------------------|------------------|-0---------0------|
E-0--------0-------|-0--------0-------|-0--------0-------|------------------|
 Guitar 2 (rake all|chords)	      |			 |	 If there's |
E------------------|------------------|------------------|------------------|
B------------------|------------------|------------------|------------------|
G------------------|-7--------7-------|-7--------7-------|-----------7------|
D------------------|-9--------7-------|-9--------7-------|-----------9------|
A------------------|-7--------7-------|-7--------7-------|-----------7------|
E------------------|------------------|------------------|------------------|

Verse 1 (Guitar 1, Guitar 2)
----------------------------

  Em7	   Am7	     Em7      Am7	Em7	 Am7	   Am9	     n/c
 Guitar 1
E------------------|------------------|------------------|------------------|
B-8-----8--7-----7-|-8-----8--7-----7-|-------8--------7-|-------0----------|
G-----7--------7---|-----7--------7---|-----7--------7---|-----5---------7--|
D---9--------7-----|---9--------7-----|---9--------7-----|---7---------9----|
A------------------|------------------|------------------|-0---------0------|
E-0--------0-------|-0--------0-------|-0--------0-------|------------------|
 Sunday in their   | And they can't   | Halfsick of 	 | Than the fair    |
 eyes		   | disguise it      | shadows greyer	 | Elaine knows     |
		   |		      |			 |		    |
 Guitar 2 (rake all|chords)	      |			 |	 	    |
E------------------|------------------|------------------|------------------|
B(8)------(7)------|(8)---------------|(8)---------------|------------------|
G-7--------7-------|-7----------------|-7----------------|------------------|
D-9--------7-------|-9----------------|-9----------------|------------------|
A-7--------7-------|-7----------------|-7----------------|------------------|
E------------------|------------------|------------------|------------------|


E------------------|------------------|------------------|------------------|
B-8-----8--7-----7-|-8-----8--7-----7-|-8-----8--7-----7-|-------0----------|
G-----7--------7---|-----7--------7---|-----7--------7---|-----5---------7--|
D---9--------7-----|---9--------7-----|---9--------7-----|---7---------9----|
A------------------|------------------|------------------|-0---------0------|
E-0--------0-------|-0--------0-------|-0--------0-------|------------------|
 Its four hours	   | And you're scared| Feeling so afraid| A child in an air|
 after twelve	   | of yourself      |	like		 | raid		    |
 	      	   |		      |	 	         |		    |
E------------------|------------------|------------------|------------------|
B(8)------(7)------|(8)---------------|(8)---------------|------------------|
G-7--------7-------|-7----------------|-7----------------|------------------|
D-9--------7-------|-9----------------|-9----------------|------------------|
A-7--------7-------|-7----------------|-7----------------|------------------|
E------------------|------------------|------------------|------------------|

Chorus 1 (Guitar 1)
-------------------

  Bm		     A9 (no 3rd)	Em		   Bm	    F#
E------------------|--------0-------0-|--------7---------|----------------2-|
B----(3)--3--2---3-|-----------0------|-----------7---8--|-------3--2-------|
G-----4------------|-----2------------|-----9------------|-----4--------3---|
D---4--------------|---2--------------|---9--------------|---4--------4-----|
A-2----------------|-0----------------|-7----------------|-2----------------|
E------------------|------------------|------------------|----------2-------|
 If there's only    Reason to live in	World	     I'll  Find it	
 one		     this

E------------------|--------0-------0-|--------7---------|------------------|
B----(3)--3--2---3-|-----------0------|-8---------7---8--|-------3--2-------|
G-----4------------|-----2------------|-----9------------|-----4--------3---|
D---4--------------|---2--------------|---9--------------|---4--------4-----|
A-2----------------|-0----------------|-7----------------|-2----------------|
E------------------|------------------|------------------|----------2-------|
And if there's only Reason to give up  Yourself      Ask  The lonely and the
one  							   dying

E---3-0-------2-0--|------------------|
B-3-----3---2------|------------------|
G------------------|----- sound ------|
D------------------|---- effects -----|
A------------------|------------------|
E------------------|------------------|

				   If
Verse 2 (Guitar 1, Guitar 2)
----------------------------

  Em7	   Am7	     Em7      Am7	Em7	 Am7	   Am9	     n/c
 Guitar 1
E------------------|------------------|------------------|------------------|
B-8-----8--7-----7-|-8-----8--7-----7-|-8-----8--7-----7-|-------0----------|
G-----7--------7---|-----7--------7---|-----7--------7---|-----5---------7--|
D---9--------7-----|---9--------7-----|---9--------7-----|---7---------9----|
A------------------|------------------|------------------|-0---------0------|
E-0--------0-------|-0--------0-------|-0--------0-------|------------------|
 You're drowning   | As the candle    | Faces at the	 |  Whispering that |
 in the dark	   | goes out	      |	window and a	 |  won't go	    |
 	      	   |		      |	 	         |		    |
 Guitar 2 (rake all|chords)	      |			 |	 	    |
E------------------|------------------|------------------|------------------|
B(8)---------------|(8)---------------|(8)---------------|------------------|
G-7----------------|-7----------------|-7----------------|------------------|
D-9----------------|-9----------------|-9----------------|------------------|
A-7----------------|-7----------------|-7----------------|------------------|
E------------------|------------------|------------------|------------------|


E------------------|------------------|------------------|------------------|
B-8-----8--7-----7-|-8-----8--7-----7-|-8-----8--7-----7-|-------0----------|
G-----7--------7---|-----7--------7---|-----7--------7---|-----5---------7--|
D---9--------7-----|---9--------7-----|---9--------7-----|---7---------9----|
A------------------|------------------|------------------|-0---------0------|
E-0--------0-------|-0--------0-------|-0--------0-------|------------------|
 Focus on the dawn   And the promise	Look ahead of	   Breath of summer
		     morning		winter	  Let the  into you

Chorus 2 (Guitar 1)
-------------------

  Bm		     A9	(no 3rd)	Em		   Bm	    F#
E------------------|--------0-------0-|--------7---------|------------------|
B----(3)--3--2---3-|-----------0------|-8---------7---8--|-------3--2----(2)|
G-----4------------|-----2------------|-----9------------|-----4--------3---|
D---4--------------|---2--------------|---9--------------|---4--------4-----|
A-2----------------|-0----------------|-7----------------|-2----------------|
E------------------|------------------|------------------|----------2-------|
 And if there's only Reason to live in	World	     I'll  Find it	
 one		     this

E------------------|--------0-------0-|--------7---------|------------------|
B-------3--2-2---3-|-----------0------|-8---------7---8--|-------------2----|
G-----4------------|-----2------------|-----9------------|-----4------------|
D---4--------------|---2--------------|---9--------------|---4--------------|
A-2----------------|-0----------------|-7----------------|-2----------------|
E------------------|------------------|------------------|------------------|
If there's only one  Reason to give up  Yourself      Ask  The lonely and the
							   dying

E---3-0-------2-0--|
B-3-----3---2------|
G------------------|
D------------------|
A------------------|
E------------------|

Interlude (Guitar 1)
--------------------
  G	   A 	     B5			G	 A 	   B9 (no 3rd)
		     rake				 rake
E------------------|------------------|------------------|----------2-------|
B-3----------------|------------------|-3----------------|-------------2----|
G------4---6----6--|-4----------------|------4---6----6--|------4---------4-|
D----5--------7----|-4----------------|----5--------7----|-4--4-------------|
A------------------|-2----------------|------------------|-2----------------|
E-3--------5-------|------------------|-3--------5-------|------------------|

 Always waiting for  Morning		Always waiting for  Light to come
							    around
		     rake
E------------------|------------------|------------------|
B-3----------------|------------------|-3----------------|
G------4-4-6----6--|-4----------------|------4---6----6--|
D----5--------7----|-4----------------|----5--------7----|
A------------------|-2----------------|------------------|
E-3--------5-------|------------------|-3--------5-------|

Always waiting for  Morning	And the Light to come 
					shining in		

Solo 1 (Guitar 3, Guitar 4, Guitar 5)
-------------------------------------

  B5		     A5			E5		   B5	    F#5	G5	
Guitar 3 (Palm Mute all chords, throughout)
E------------------|------------------|------------------|------------------|
B------------------|------------------|------------------|------------------|
G------------------|------------------|------------------|------------------|
D-4--44------------|-2---2------------|------------------|-4----------------|
A-2--22------------|-0---0------------|-2---2------------|-2---------4-/-5--|
E------------------|------------------|-0---0------------|-----------2-/-3--|
Guitar 4	ph~|		   ph~|		      ph~|		    |
E------------------|------------------|------------------|------------------|
B------------------|------------------|------------------|------------------|
G------------2--4mb|------------2--4mb|------------2--4mb|------------------|
D------2-2h4-------|-------2-2h4------|-------2-2h4------|------------------|
A------------------|------------------|------------------|------------------|
E------------------|------------------|------------------|------------------|

  B5		     A5			E5		   G5	    F#5  G5
Guitar 3
E------------------|------------------|------------------|------------------|
B------------------|------------------|------------------|------------------|
G------------------|------------------|------------------|------------------|
D-4--44------------|-2---2------------|------------------|------------------|
A-2--22------------|-0---0------------|-2--22------------|-5--------4-/-5--|
E------------------|------------------|-0--00------------|-3--------2-/-3--|
Guitar 4	ph~|		   ph~|		      ph~|		    |
E------------------|------------------|------------------|------------------|
B------------------|------------------|------------------|------------------|
G------------2--4mb|------------2--4mb|------------2--4mb|------------------|
D------2-2h4-------|-------2-2h4------|-------2-2h4------|------------------|
A------------------|------------------|------------------|------------------|
E------------------|------------------|------------------|------------------|

  B5		     A5			E5		   B5	    F#5	G5
Guitar 3
E------------------|------------------|------------------|------------------|
B------------------|------------------|------------------|------------------|
G------------------|------------------|------------------|------------------|
D-4--44------------|-2---2------------|------------------|-4----------------|
A-2--22------------|-0---0------------|-2--22------------|-2---------4-/-5--|
E------------------|------------------|-0--00------------|-----------2-/-3--|
Guitar 4	ph~|		   ph~|		      ph~|		    |
E------------------|------------------|------------------|------------------|
B------------------|------------------|------------------|------------------|
G------------2--4mb|------------2--4mb|------------2--4mb|------------------|
D------2-2h4-------|-------2-2h4------|-------2-2h4------|------------------|
A------------------|------------------|------------------|------------------|
E------------------|------------------|------------------|------------------|
Guitar 5	   |		      |			 |		    |
E------------------|------------------|---7---------7----|------------7b9-r8|
B----3--[play-5-]--|----3--3--3--3-333|5b7-5b7-3-5b7-5b7-3-7p5-7p5-7p5------|
G-2h4----[times]---|-2h4--2--2--2-----|------------------|------------------|
D------------------|------------------|------------------|------------------|
A------------------|------------------|------------------|------------------|
E------------------|------------------|------------------|------------------|

  B5		     A5			E5		   G5	    F#5  G5
Guitar 3	
E------------------|------------------|------------------|--	

Видео для песни "Only One Reason":

 

Описание аккордов к песне (Генератор аккордов)

  • E ↓
    Аккорд E
  • D ↓
    Аккорд D
  • G ↓
    Аккорд G
  • B ↓
    Аккорд B
  • Em7 ↓
    Аккорд Em7
  • Am7 ↓
    Аккорд Am7
  • Am9 ↓
    Аккорд Am9
  • Bm ↓
    Аккорд Bm
  • A9 ↓
    Аккорд A9
  • Em ↓
    Аккорд Em
  • F# ↓
    Аккорд F#
  • B5 ↓
    Аккорд B5
  • A5 ↓
    Аккорд A5
  • E5 ↓
    Аккорд E5
  • F#5 ↓
    Аккорд F#5
  • G5 ↓
    Аккорд G5

 

Еще подборы:

 

Отзывы и комментарии:


Для связи с администратором: killger@gmail.com
©2013 - 2018 портал PesniGitara. Все тексты песен принадлежат их авторам. Копирование некоторых материалов портала только с разрешения администратора!