× Закрыть

Scarlet (All About Eve)

		
From ellis_w_wayne@bt-web.bt.co.uk Thu Oct  5 10:16:22 1995
Received: from zaphod.axion.bt.co.uk by get.wired.com (8.6.12/sven) with SMTP id CAA03287; Thu, 5 Oct 1995 02:21:31 -0700
Message-Id: 
Received: from bt-web.bt.co.uk by zaphod.axion.bt.co.uk via DECnet inbound channel id ;
          Thu, 5 Oct 1995 10:16:22 +0100
X-Vms-To: R11F::NEVADA.EDU::GUITAR
To: guitar@nevada.edu, dgaudet@hotwired.com
From: ellis_w_wayne 
Subject: TAB: Scarlet by All About Eve
Date: Thu, 5 Oct 1995 10:16:22 +0100

				'Scarlet' by All About Eve

>From the album 'Scarlet and Other Stories'
(also available on the compilation 'Winter Words, Hits and Rareties')

Transcribed by Wayne Ellis 	email ellis_w_wayne@bt-web.bt.co.uk

This song uses 2 acoustic guitars.
The guitars are tuned as follows: E G D A B D (from low to high)

Intro

D|------0--------0---|------0--------0---|------0--------0---|------0------------|
B|--------0--------0-|--------0--------0-|--------0--------0-|--------0----------|
A|-------------------|-------------------|-------------------|-------------0---0-|	
guitar 1
D|---0--------0------|---0---------0-----|---0--------0------|---0--------0---0--| 
   (play twice)
G|--0--------0-------|--0-------2s3------|--0--------0-------|--0--------3---2---|
E|-3--------3--------|-3-----------------|-3--------3--------|-3-----------------|

Verse 1

D|------0--------0---|------0--------0---|------0--------0---|------3--3----3-0--|
B|--------0--------0-|--------0--------0-|--------0--------0-|-------------------|
A|-------------------|-------------------|-------------------|-------------------|	
guitar 1
D|---0--------0------|---0--------0------|---0--------0------|---0---------------| 

G|--0--------0-------|--0--------0-------|--0--------0-------|--0----------------|
E|-3--------3--------|-3--------3--------|-3--------3--------|-3---------3-------| 
  

  Dress me in scarlet			  Ribbons and bows    So 
everyone knows

D|------5-2----0h2-2-|----3-5---0--3p2-0-|------3-0---0-0----|------0------------|
B|-------------------|-------------------|-------------------|-------------------|
A|-------------------|-------------------|-------------------|-------------------|	
guitar 1
D|-------------------|-------------------|---0---------------|---0-------0---0---|
G|-------------------|-------------------|--0-------0--------|--0-------0---0----|
E|-------------------|-------------------|-3-----------------|-3-------0---1-----|
 
  hiding a face	      hadn't the grace to go free

D|------3-0------0---|------0--------0---|------0--------0---|-------3-3------3--|
B|-----------------0-|--------0--------0-|--------0--------0-|-------------------|
A|-------------------|-------------------|-------------------|-------------------|	
guitar 1
D|---0--------0------|---0--------0------|---0--------0------|-------------------| 

G|--0--------0-------|--0--------0-------|--0--------0-------|-------------------|
E|-3--------3--------|-3--------3--------|-3--------3--------|----3--------3-----| 
  

  Dress me in shadows 			  Sad April skies    Have 
opened my eyes

D|------5-2----0h2-2-|----3-5---0--3p2-0-|------0-0-----0-0--|-----0--------0----|
B|-------------------|-------------------|---------------(3)-|-------0-----------|
A|-------------------|-------------------|-------------------|-------------------|	
guitar 1
D|-------------------|-------------------|---0-------0-------|---0-------0-------|
G|-------------------|-------------------|--0-------0--------|--0-------0--------|
E|-------------------|-------------------|-3-------3---------|-3-------3---------|

 To the lie that I live And given the river Away

D|------0--------0-0-|------0--------0---|------0------0-----|-----0-0-------0---|
B|--------3----------|--------0--------0-|-----(0)0---(0)0---|----(0)-------(0)--|
A|-------------------|-------------------|-------------------|-------------------|	
guitar 1
D|---0--------0------|---0--------0------|---0-------0-------|---0--------0------|
G|--0--------0-------|--0--------0-------|--0-------0--------|--0--------0-------|
E|-3--------3--------|-3--------3--------|-3-------3---------|-3-------3---------|
  * fill 1 overdub

 I'll change these clothes If I want to   And I do

    U
D|-------------------|
B|--3----------------|
A|--0----------------|	fill 1
D|--0----------------|
G|-------------------|
E|-------------------|

Chorus 1
	     U  D
D|-----------0-------|
B|-----------3--3----|
A|--------------5----| Pickup bar 	 						
guitar 1
D|--------------0----|
G|-------------------|
E|-------------------|

   D  U D  D  U D      					       D  U D  
D  U
D|-0--0-0--0--0-0----|-0--0-0--0--0-0----|-0--0-0--0--0-0----|-0--0-0--0--0------|
B|-3--3-3--3--3-3----|-3--3-3--3--3-3----|-3--3-3--3--3-3----|-3--3-3--3--3------|
A|-5-------5---------|-5-------5---------|-5-------5---------|-5-------5---------|	
guitar 1
D|-------------------|-------------------|-------------------|-------------------|
G|-------------------|-------------------|-------------------|-------------------|
E|-------------------|-------------------|-------------------|-------------------|

         I think that I've found out what No-ones about to tell me

	     U  D
D|-----------0-------|
B|-----------3--3----|
A|--------------5----| Pickup bar 						 
	guitar 1
D|--------------0----|
G|-------------------|
E|-------------------|
 								 U  D  
 U  D
D|-0--0-0--0--0-0----|-0--0-0--0--0-0----|-0--0-0--0---------|---0------0--------|
B|-3--3-3--3--3-3----|-3--3-3--3--3-3----|-3--3-3--3---------|---3--3---3--3-----|
A|-5-------5---------|-5-------5---------|-5-------5--0------|---5--5---5--5-----|	
guitar 1
D|-------------------|-------------------|-------------------|-------------------|
G|-------------------|-------------------|-------------------|-------------------|
E|-------------------|-------------------|-------------------|-------------------|

	I think that I've found out I     Don't wear scarlet well

D|---0------0--------|
B|---3--3---3--3-----|
A|---5--5---5--5-----|									
guitar 1
D|-------------------|
G|-------------------|
E|-------------------|									

Verse 2

  rake
D|------0-------0----|------0--------0---|------0------0-----|-----3-3-------3---|
B|--------0-------0--|--------0--------0-|--------0------0---|-------------------|
A|-5-----------------|-------------------|-------------------|-------------------|	
guitar 1
D|-0----------0------|---0--------0------|---0-------0-------|---0---------------|
G|-0---------0-------|--0--------0-------|--0-------0--------|--0----------------|
E|----------3--------|-3--------3--------|-3-------3---------|-3----------3------|

  Waiting before me    			  Poets and painters   May say

D|------5-2----0h2-2-|----3-5---0--3p2-0-|------0------0-0---|-----0-0-------0---|
B|-------------------|-------------------|--------3----------|-------------------|
A|-------------------|-------------------|-------------------|-------------------|	
guitar 1
D|-------------------|-------------------|---0-------0-------|---0---------------|
G|-------------------|-------------------|--0-------0--------|--0----------------|
E|-------------------|-------------------|-3-------3---------|-3-------3---------|

  Stumble our way    Kick off your redshoes And fly now

D|------0-------0----|------0--------0---|------0------0-----|-----0--------0----|
B|--------3-------3--|--------0--------0-|--------0------0---|-------0-----------|
A|-------------------|-------------------|-------------------|-------------------|	
guitar 1
D|-------------------|---0--------0------|---0-------0-------|---0-------0-------|
G|-------------------|--0--------0-------|--0-------0--------|--0-------0--------|
E|-------------------|-3--------3--------|-3-------3---------|-3-------3---------|

  I'll die					   And I do

Chorus 2 and Guitar Solo 1

	     U  D
D|-----------0-------|
B|-----------3--3----|
A|--------------5----| Pickup bar 							
guitar 1
D|--------------0----|
G|-------------------|
E|-------------------|

        X      X
     U  D   U  D      (picking pattern same throughout for guitar 1)
D|---0------0--------|---0------0--------|---0------0--------|---0------0--------|
B|---3--3---3--3-----|---3--3---3--------|---3--3---3--3-----|---3--3---3--3-----|
A|---5--5---5--5-----|---5--5---5--------|---5--5---5--5-----|---5--5---5--5-----|	
guitar 1
D|-------------------|-------------------|-------------------|-------------------|
G|-------------------|-------------------|-------------------|-------------------|
E|-------------------|-------------------|-------------------|-------------------|

          Think that  I've found out what   No'ones about to  tell me 

	     U  D
D|-----------0-------|
B|-----------3--3----|
A|--------------5----| Pickup bar 							
guitar 1
D|--------------0----|
G|-------------------|
E|-------------------|

D|---0------0--------|---0------0--------|---0------0--------|---0------0--------|
B|---3--3---3--3-----|---3--3---3--3-----|---3--3---3--3-----|---3--3---3--3-----|
A|---5--5---5--5-----|---5--5---5--5-----|---5--5---5--5-----|---5--5---5--5-----|	
guitar 1
D|-------------------|-------------------|-------------------|-------------------|
G|-------------------|-------------------|-------------------|-------------------|
E|-------------------|-------------------|-------------------|-------------------|
 |		     |			 |		     |muted 
rake	 |
D|-------------------|-------------------|-------------------|-------------------|
B|-------------------|-------------------|-------------------|-------3h4p3-------|	
A|-------------------|-------------------|-------------------|------0-------3-s5-|	
guitar 2
D|-------------------|-------------------|-------------------|-------------------|
G|-------------------|-------------------|-------------------|-------------------|
E|-------------------|-------------------|-------------------|-------------------|
 
	  Think that  I've found out I     Don't wear Scarlet   Well

D|---0------0--------|---0------0--------|---0------0--------|---0------0--------|
B|---3--3---3--3-----|---3--3---3--3-----|---3--3---3--3-----|---3--3---3--3-----|
A|---5--5---5--5-----|---5--5---5--5-----|---5--5---5--5-----|---5--5---5--5-----|	
guitar 1
D|-------------------|-------------------|-------------------|-------------------|	
G|-------------------|-------------------|-------------------|-------------------|
E|-------------------|-------------------|-------------------|-------------------|
 |		     |			 |		     | muted 
rake        |
D|-------------------|-------------------|-------------------|----------5h7-0-8--|	
B|-------------------|-------------------|-------------------|---------0---------|
A|-------0h1p0-------|-------------------|-------------------|--------0----------|	
guitar 2
D|-------------3-s7--|-------------------|-s5-s5-s5-s5--3--0-|-------------------|
G|-------------------|-------------------|-------------------|-------------------|
E|-------------------|-------------------|-------------------|-------------------|

D|---0------0--------|---0------0--------|---0------0--------|
B|---3--3---3--3-----|---3--3---3--3-----|---3--3---3--3-----|
A|---5--5---5--5-----|---5--5---5--5-----|---5--5---5--5-----|				
guitar 1
D|-------------------|-------------------|-------------------|
G|-------------------|-------------------|-------------------|
E|-------------------|-------------------|-------------------|
 |		     |			 |		     |			 

D|-------------------|-------------------|-------------------|	
B|-------------------|-------------------|-------------------|
A|-------------------|-------------------|-------------------|				
guitar 2
D|---------5-8-7-5---|----------1--7p5p0-|-7p5p0-(X4)--------|
G|------s7-----------|-------------------|----------------7--|
E|-------------------|-------------------|-------------------|
			           *play the 7p5p0 phrase 5 times in 
all

There may be a mandolin track buried in the mix on this chorus.

Verse 3
        X      X
     U  D   U  D   (picking pattern same throughout this verse)  U  U  
 U
D|---0------0--------|---0------0--------|---0------0--------|---0--0---0--------|
B|---3--3---3--3-----|---3--3---3--3-----|---3--3---3--3-----|---3--3---3--------|
A|---5--5---5--5-----|---5--5---5--5-----|---5--5---5--5-----|---5--5---5--------|	
guitar 1
D|-------------------|-------------------|-------------------|-------------------|
G|-------------------|-------------------|-------------------|-------------------|
E|-------------------|-------------------|-------------------|-------------------|

  Always before me    (Always before me)   Poets and sages     May say 
we've been

D|------5-2----0h2-2-|----3-5---0--3p2-0-|---0------0--------|---0------0--------|
B|-------------------|-------------------|---3--3---3--3-----|---3--3---3--3-----|
A|-------------------|-------------------|---5--5---5--5-----|---5--5---5--5-----|	
guitar 1
D|-------------------|-------------------|-------------------|-------------------|
G|-------------------|-------------------|-------------------|-------------------|
E|-------------------|-------------------|-------------------|-------------------|

  Lamenting your fall And carving it all into Stone  here

								       D 
U D U
D|---0------0--------|---0------0--------|---0------0--------|---0---------------|
B|---3--3---3--3-----|---3--3---3--3-----|---3--3---3--3-----|---3--3--3-3-3-3---|
A|---5--5---5--5-----|---5--5---5--5-----|---5--5---5--5-----|---5--5--5-5-5-5---|	
guitar 1
D|-------------------|-------------------|-------------------|-------------------|
G|-------------------|-------------------|-------------------|-------------------|
E|-------------------|-------------------|-------------------|-------------------|

  And skimming them into the River Just for you

Chorus 3 and Guitar Solo 2

	     U  D
D|-----------0-------|
B|-----------3--3----|
A|--------------5----| Pickup bar 							
guitar 1
D|--------------0----|
G|-----------------	

Видео для песни "Scarlet":

 

Описание аккордов к песне (Генератор аккордов)

  • E ↓
    Аккорд E
  • G ↓
    Аккорд G
  • D ↓
    Аккорд D
  • B ↓
    Аккорд B

 

Еще подборы:

 

Отзывы и комментарии:


Для связи с администратором: killger@gmail.com
©2013 - 2018 портал PesniGitara. Все тексты песен принадлежат их авторам. Копирование некоторых материалов портала только с разрешения администратора!