Закат (Ария)

		

Em Am D Em

Я вижу, как закат сткла оконные плавит,

1) -------0-------------0----------2320--------0----

2) -----0--0----------1-1------3--------3----0--0---

3) ----0-----0------2----2----2--------------0-----0--

4) ---2--------2---2-------2-0--------------2-------2-

5) ---------------0-----------------------------------------

6) -0------------------------------------------0--------

Em A F# H7 (H)

День прожит, а ночь оставит тени снов в углах.

1) -----0------------0------------2------------2----

2) ----0-0--------1--1--------2--2--------0--0---

3) ---0---0-----2------2-----3-----3-----2-----2--

4) --2-----2--2----------2--4--------4--1--------1-

5) -----------0----------------------------2--------

6) -0------------------------2-----------------

Мне не вернуть назад серую птицу печали,

Вс в прошлом, так быстро тают замки в облаках.

Припев:

E7 Am

Там все живы, кто любил меня,

C H7 (H)

Где восход - как праздник бесконечной жизни,

E7 Am

Там нет счта рекам и морям,

C H7 (H)

Hо по ним нельзя доплыть домой.

Проигрыш.

Вновь примирит вс тьма, даже алмазы и пепел,

Друг равен врагу в итоге, а итог один...

Два солнца у меня на этом и прошлом свете,

Их вместе собой укроет горько-сладкий дым.

Припев:

G D

Возьми меня с собой, пурпурная река,

G D

Прочь унеси меня с собой, закат.

Am C

Тоска о том, что было, рвтся через край,

Hm C

Под крики серых птичьих стай.

Проигрыш.

Em Am D Em

Я вижу, как закат сткла оконные плавит,

Em Am F# H7 Em

День прожит, а ночь оставит тени снов в углах...

Припевы и куплет (2) играются боем: vv^^v^ (медленно, с расстановкой)

P.S. Вместо H7 можно брать H.

Видео для песни "Закат":

 

Описание аккордов к песне (Генератор аккордов)

  • Em ↓
    Аккорд Em
  • Am ↓
    Аккорд Am
  • D ↓
    Аккорд D
  • F# ↓
    Аккорд F#
  • H7 ↓
    Аккорд H7
  • E7 ↓
    Аккорд E7
  • C ↓
    Аккорд C
  • G ↓
    Аккорд G
  • Hm ↓
    Аккорд Hm

 

Еще подборы:

 

Отзывы и комментарии:


Для связи с администратором: killger@gmail.com
©2013 - 2016 портал PesniGitara. Все тексты песен принадлежат их авторам. Копирование некоторых материалов портала только с разрешения администратора!