× Закрыть

Пыль на кедах (ft. Angelina Rai) (Басота)

		
E||-----------------------------------------0----------|
B||-------0-----------3----------0---------------------|
G||-----2----------2---------2--------2----------------|
D||---2----------2---------2--------2------------------|
A||----------------------------------------------------|
E||----------------------------------------------------|
                                       два раза эти переборы
E||-----------------------------------------------0---|
B||-------0-----------3-------------0-----------------|
G||-----0----------0------------0------------0--------|
D||---2----------2-------------2-----------2----------|
A||---------------------------------------------------|
E||---------------------------------------------------|

Am
И мы посмотрим словно первый раз на мир сегодня. 
C                                                     G
Бросив все, ведь среди фраз своих, того, кем грезил быть 
так и не смог найти. 
Хоть за спиной братва кричит: 
                            Em
- Сюда смотри, мы все смогли! 

Нас хапал этот город, ритмы заливая, море спиртного. 
Перечитали горы книг, и весь перелопатим мир. 
За шанс видеть прекрасной жизнь, и вновь, что до упада влепив. 
В надежде украсить быт. 

И мы давно бы посмотрели, друг, на все иначе. 
Но мы видели блоки и пачки только в табачном. 
И мы набираем номер мамы лишь по утру, на отходах. 
Свернувшись в калачик. 

Мы домой принесем, только пыль на кедах. 
Мы видели не раз бензин в канистрах, клей в пакетах. 
Из аптек коробки брада-пана-цикломеда. 
Мы жили, как Буковский, но читали Кастанеда. 

Мы домой принесем, только пыль на кедах. 
Мы видели не раз бензин в канистрах, клей в пакетах. 
Из аптек коробки брада-пана-цикломеда. 
Мы жили, как Буковский, но читали Кастанеда. 

Мы тут давно, не та голодная шпана. 
Который сытый год сидим у полного стола. 
Но выбираясь медленно и верно из говна. 
Видимся красными глазами, только серые тона. 

Здесь, знаешь бежали не спроста. 
С кругов, где вес у человека измеряется в кусках. 
Представь себе. 
Но мы не любили ни одну из них. 
Но заскрипел диван и уже явно не до сна. 

Челюсть схватило по утрам, поскольку брат, мы рвались к сердцам. 
Как перископы бедолаг. 
И да, мы безусловно уважаем медицину. 
Но от наших процедур подох*ел бы Гипократ. 

Мы домой принесем, только пыль на кедах. 
Мы видели не раз бензин в канистрах, клей в пакетах. 
Из аптек коробки брада-пана-цикломеда. 
Мы жили, как Буковский, но читали Кастанеда. 

Мы домой принесем, только пыль на кедах. 
Мы видели не раз бензин в канистрах, клей в пакетах. 
Из аптек коробки брада-пана-цикломеда. 
Мы жили, как Буковский, но читали Кастанеда.

Видео для песни "Пыль на кедах (ft. Angelina Rai)":

 

Описание аккордов к песне (Генератор аккордов)

  • Am ↓
    Аккорд Am
  • C ↓
    Аккорд C
  • G ↓
    Аккорд G
  • Em ↓
    Аккорд Em

 

Еще подборы:

 



Для связи с администратором: killger@gmail.com
©2013 - 2018 портал PesniGitara. Все тексты песен принадлежат их авторам. Копирование некоторых материалов портала только с разрешения администратора!