× Закрыть

Аллеменда (аллегретто в G из 6-ти Немецких танцев) (Бетховен)

		
Тональность: C
Размер     : 3/4
Темп       : Allegretto


E|----|---------0---|-------------|-----1--------|
B|----|-1---1-------|-1---1---1---|-3-----3-0----|
G|-0.-|---0---0---0-|---0---0---0-|---0-------0--|
D|----|-----2---2---|-----2---2---|-3---3---3----|
A|----|-3-----------|-3-----------|--------------|
E|----|-------------|-------------|--------------|

E|-----0--------|---------0---|
B|-1------------|-1---1-------|
G|---0---0--0---|---0---0---0-|
D|-----2------2-|-----2---2---|
A|-3--------3---|-3-----------|
E|--------------|-------------|

E|---------0---|-----1-------|------| ||------|-0-0-0-|
B|-1---1-------|-3-----3-0---|--1.--| ||------|-0-0-0-|
G|---0---0---0-|---0-------0-|------| ||-----|-------|
D|-----2---2---|-3---3---3---|------| ||-2.--|-------|
A|-3-----------|-------------|--3.--| ||------|-------|
E|-------------|-------------|------| ||------|-4-4-4-|

E|-----------|-------|
B|-3-1-0-1---|-3-3-3-|
G|-2-------2-|-2-2-2-|
D|-----------|-------|
A|-0---------|-------|
E|-----------|-2-2-2-|

E|-----------|-3-3-3-|-1-0---0---|---1---|------||
B|-1-0---0---|-------|-----4---1-|-3---0-|--1.--||
G|-0---2---0-|-------|-----------|-----0-|-----||
D|-----------|-------|-----0---2-|-3-0---|-----||
A|-----------|---0-2-|-3---------|-------|--3.--||
E|-3---------|-3-----|-----------|-------|------||

Видео для песни "Аллеменда (аллегретто в G из 6-ти Немецких танцев)":

 

Описание аккордов к песне (Генератор аккордов)

  • C ↓
    Аккорд C

 

Еще подборы:

 



Для связи с администратором: killger@gmail.com
©2013 - 2018 портал PesniGitara. Все тексты песен принадлежат их авторам. Копирование некоторых материалов портала только с разрешения администратора!