× Закрыть

К Элизе (Бетховен)

		
		К Элизе

		                 Am            E           Am
		e|-0---0---0---------------------------------------|
		B|---4---4---0-3-1-------------0---------0-1-------|
		G|-----------------2---------2-----1---1-----------|
		D|-------------------2-----2-----2---2-------2---2-|
		A|-----------------0---0-3-----------------0---0---|
		E|-----------------------------0-------------------|

		                 Am            E     E7    Am
		e|-0---0---0-------------------------------------|
		B|---4---4---0-3-1-------------0-------1-0-------|
		G|-----------------2---------2-----1-------2-----|
		D|-------------------2-----2-----2---0-----------|
		A|-----------------0---0-3-----------------0---0-|
		E|-----------------------------0-------------0---|

		                 Am            E           Am
		e|-0---0---0---------------------------------------|
		B|---4---4---0-3-1-------------0---------0-1-------|
		G|-----------------2---------2-----1---1-----------|
		D|-------------------2-----2-----2---2-------2---2-|
		A|-----------------0---0-3-----------------0---0---|
		E|-----------------------------0-------------------|
		                 Am            E     E7    Am
		e|-0---0---0---------------------------------------|
		B|---4---4---0-3-1-------------0-------1-0-------0-|
		G|-----------------2---------2-----1-------2-------|
		D|-------------------2-----2-----2---0-------------|
		A|-----------------0---0-3-----------------3---0---|
		E|-----------------------------0-------------0-----|

		e|----0-------1-0---------0--------------------0-------0---0------------|
		B|1-3-----1-------3---0-----3-1-------3-1-0-----------------------------|
		G|------0---0-------0-------------2-------------------------------------|
		D|----------------------3-------2---2--------2-----2-2---2---1-2-1-2-1-2|
		A|----3-----------------------0-----------------------------------------|
		E|----------------3-----------------------0------0----------------------|

		                 Am            E           Am
		e|-0---0---0---------------------------------------|
		B|---4---4---0-3-1-------------0---------0-1-------|
		G|-----------------2---------2-----1---1-----------|
		D|-------------------2-----2-----2---2-------2---2-|
		A|-----------------0---0-3-----------------0---0---|
		E|-----------------------------0-------------------|

		                 Am            E     E7    Am
		e|-0---0---0-------------------------------------|
		B|---4---4---0-3-1-------------0-------1-0-------|
		G|-----------------2---------2-----1-------2-----|
		D|-------------------2-----2-----2---0-----------|
		A|-----------------0---0-3-----------------3---0-|
		E|-----------------------------0-------------0---|

-

		1--12-11-12-7-10-8--5--------7-8-7-------8-----------------
		2--------------------------5-------------------------------
		3------------------------5-------------9-------------------
		4----------------------7-------------6----------7----------
		5---------------------7------------7----------7------------
		6-------------------5------------0----------5--------------

		1--12-11-12-7-10-8--5--------7-8-7-------8-----------------
		2--------------------------5-------------------------------
		3------------------------5-------------9-------------------
		4----------------------7-------------6----------7----------
		5---------------------7------------7----------7------------
		6-------------------5------------0----------5--------------

Видео для песни "К Элизе":

 

Описание аккордов к песне (Генератор аккордов)

  • Am ↓
    Аккорд Am
  • E ↓
    Аккорд E
  • E7 ↓
    Аккорд E7

 

Еще подборы:

 



Для связи с администратором: killger@gmail.com
©2013 - 2018 портал PesniGitara. Все тексты песен принадлежат их авторам. Копирование некоторых материалов портала только с разрешения администратора!