× Закрыть

Пятая симфония (Бетховен)

		
E|---3-3-3------1-1-1------------------------------------------|
B|2--------4----------3-------------------4-4-4-1--------------|
G|/--0-0-0----------------0-0-0---1-1-1-0--------------0-0-0---|
D|4--------1----3-3-3-0---------1----------------------------0-|
A|-------------------------------------------------------------|
E|-------------------------------------------------------------|

E|---------1-1-1---3-3-1-----------3-3-1-----------3-3-1-----2-|
B|---------------3-------4-------3-------4-------3------4----3-|
G|-1-1-1-0-----------------------0---------------0------5--5-4-|
D|-------------------------1-1-3-----------1-1-3--------5--4-5-|
A|---------------------------------------------------------6-5-|
E|-----------------------------------------------------------2-|

E|-4-4-4-1-----------------------------------------------------|
B|-------------------------------------------------------------|
G|-1-1-1-----1-1-1---------------------1-1-1-------------------|
D|-------3---------3-0-0-0-----------1-------3-0-0-0-----------|
A|-------------------------2-------------------------2---------|
E|---------------------------4-4-4-3-------------------4-4-4-3-|

E|-2-2-2-----------------------------------|
B|-3-3-3-4---1-1-1-0-0-0-3-3-1-1-1-4-4-3-3-|
G|-0-0-0-5-0-------------------------------|
D|-------5---------------------------------|
A|-----------------------------------------|
E|-----------------------------------------|

E|-1-1-0-0-3-3-1-1-4-4-3-3-6-6-|
B|-----------------------------|
G|-----------------------------|
D|-----------------------------|
A|-----------------------------|
E|-----------------------------|

E|-4-4-8-8-7-710-8-11-11-11-8------------------|
B|----------------------------8-8-8------------|
G|----------------------------------8----------|
D|-----------------------------------10--------|
A|-------------------------------------1010-6--|
E|---------------------------------------------|

E|-13------------------------|
B|---151512------------------|
G|---------121010-7----------|
D|------------------9--------|
A|-------------------10-8----|
E|------------------------10-|

E|-11-11-11-------------------5-5-5--------6-------------------|
B|---------13101010-----------7-7-7--------6-------------------|
G|-----------------11-8-8-8---8-8-8--------7-----------------8-|
D|-------------------------10----------------------------8-----|
A|-------------------------------------------------------------|
E|-------------------------------------------------------------|

E|-------------------11-10-11-13-8---8-------------------------|
B|----------------11--------------------11---------------------|
G|-7-8-10----------------------------------------8---7---8--10-|
D|--------10-10-8----------------------------8-----------------|
A|-------------------------------------------------------------|
E|-------------------------------------------------------------|

E|----------6--8--9--8--6--8--6--4--9--11--13--11--9--11--9--8-|
B|-------------------------------------------------------------|
G|-------------------------------------------------------------|
D|-10--10-8----------------------------------------------------|
A|-------------------------------------------------------------|
E|-------------------------------------------------------------|

E|-------8-----8-----6-----6-----5-----5-----5-----5-----5-|
B|-4--6--7--6--4--6--7--6--4--6--7--6--4--6--7--6--4--6--7-|

E|---5-5-6-8-6-4-4-3-1-----------------------------------5-6-5-|
B|-6-7-4-9-------------4-4-3-1-3-6-4-----3-1-----1-------------|
G|------10---------------------------3-0-----1-----3-0---------|
D|---------------------------------------------3-------0-------|
A|-------------------------------------------------------------|
E|-------------------------------------------------------------|

E|-6-5-6-5-6-8-6-4-4-3-1-------------------|
B|-----------------------4-4-3-1-3-6-4-----|
G|-------------------------------------3-0-|
D|-----------------------------------------|
A|-----------------------------------------|
E|-----------------------------------------|

E|---------------------6-6---15151511---|
B|-3-1---------------------8---------11-|
G|-----1---5-3--------------------------|
D|-------3-----0-0---8------------------|
A|--------------------------------------|
E|--------------------------------------|

                           (15 и 11)
E|------------------------15151511-------|
B|-1111-8-4-4-4---6-6-6-8---------111111-|
G|----------------7-7-7-8----------------|
D|--------------8------------------------|
A|---------------------------------------|
E|---------------------------------------|

E|-------------------6-6-6-6-|
B|-8-4-4-4---6-6-6-8-6-6-6-8-|
G|-----------7-7-7-8-7-7-7-8-|
D|---------8-------8---------|
A|---------------------------|
E|---------------------------|

E|-10101011--|--6-6-6-3----------------------------------------|
B|-11111111-o|---------------------------------1-1-1---3-3-3-1-|
G|-10101012--|---------------------------------------1---------|
D|-----------|-------------------------------------------------|
A|----------o|----------4-4-4-3--------------------------------|
E|-----------|-------------------------------------------------|

E|-4-4-4-1---------------6-6-6-3-8-8-6-4-----3-8-8-6-4-------3-|
B|---------1-1-1--3-3-3-1--------------------1---------------1-|
G|--------------0----------------------1-1-3-0-------1-1-1-3-0-|
D|-------------------------------------------------------------|
A|-------------------------------------------------------------|
E|-------------------------------------------------------------|

E|-8-8-6-4-4-4-3-1-1-1---------------------------------------6-|
B|---------------------4-3-3-3-1-0-4-4-6-8-4-4-6-8------10-----|
G|-------------------------------------------------------------|
D|-------------------------------------------------------------|
A|-------------------------------------------------------------|
E|-------------------------------------------------------------|

E|-8-9-101010-8-6-51010-8-6-5------3-3-5-6---------2-5-6-8-----|
B|-----------10-8-7-------8-7--------------------1-------------|
G|-------1111------------------------------0-2-3-------------2-|
D|---------------------------------------------------------4---|
A|-------------------------------------------------------------|
E|-------------------------------------------------------------|

E|-------5-6-8-----------6-810------------|
B|-----7---------------8---------------8--|
G|-3-5-------------5-7---------------7----|
D|-------------7-8---------------810------|
A|----------------------------10----------|
E|----------------------------------------|

              (11 и 10)
E|6-8-10-6-810111111111111111111-|
B|------------101010101010101010-|
G|------------111111111111111111-|
D|-------81012-------------------|
A|-------------------------------|
E|-------------------------------|

   (12 и 11)
E|-121212121212121212121212--10101010---9-9-9---101010101010---|
B|-111111111111111111111111--11111111--111111---101010-------8-|
G|-121212121212121212121212--12121212--121212------------------|
D|-------------------------------------------------------------|
A|-------------------------------------------------------------|
E|-------------------------------------------------------------|

E|-5-----------------------2-2-5---1010--151515-8-----10-------|
B|-----3-----------1-1-3-----------101012--------------------8-|
G|---------------------------------111112121212----------------|
D|-----0---4-4-4-----------------------------------------------|
A|-------------------------------------------------------------|
E|-------------------------------------------------------------|

E|-3-----7-710--151512-----------|---------------1------3------|
B|-0-0-0-7-7----151513131313---8-|o---------------------------o|
G|--------------1212--------10---|----------------------0------|
D|-------------------------------|-2------3--------------------|
A|-------------------------------|o---------------------------o|
E|-------------------------------|-----------------------------|

в "-" 2/4

E|-|-|5|6|-|7|-|9|-|9-|-|9-|-|9-|-|10|-|10|-|10|-|10|
B|-|-|-|-|-|-|-|-|-|10|-|10|-|10|-|10|-|10|-|10|-|10|
G|-|2|-|-|-|-|-|-|-|--|-|11|-|11|-|11|-|11|-|11|-|11|
D|4|-|-|-|-|-|-|-|-|--|-|--|-|--|-|--|0|--|0|--|0|--|
A|-|-|-|-|1|-|2|-|4|--|0|--|0|--|0|--|0|--|0|--|0|--|
E|-|-|-|-|1|-|2|-|4|--|-|--|-|--|-|--|-|--|-|--|-|--|

E|-101010|10|10|10|-|10|-|
B|-------|12|13|10|-|10|-|
G|-------|--|--|--|-|--|-|
D|-------|--|--|--|0|--|0|
A|-------|--|--|--|-|--|-|
E|-------|--|--|--|-|--|-|

E|10|-|10|-|10|
B|10|-|10|-|10|
G|--|-|--|-|--|
D|--|0|--|0|--|
A|--|-|--|-|--|
E|--|-|--|-|--|

 теперь вс как в начале
E|--------4-4-4-1-------4-4-4-1--------4-4-4-1-4-4-4-1151515|15|
B|----------------------------------------------------------|16|
G|----------------------------------------------------------|--|
D|-0--------------------------------------------------------|--|
A|----------------------------------------------------------|--|
E|-4-4-4-1-------4-4-4-1-------4-4-4-1-4-4-4-1-4-4-4-1------|--|

E|-151515|15|-|-|------|
B|-181818|15|-|-|------|
G|-------|--|-|-|-0-0-0|
D|-------|--|-|-|------|
A|-------|--|-|-|------|
E|-------|--|-|-|------|

E|-----------------------------------1-1-1|-|
B|-----------4-4-4-1----------------------|3|
G|---1-1-1-0---------0-0-0---1-1-1-0------|-|
D|-1-----------------------0--------------|-|
A|-3-----------------------2--------------|-|
E|----------------------------------------|-|


E|-3-3-1-----------3-3-1-----------3-3-1|-|-|
B|-------4-------3-------4-------3------|4|1|
G|-------0-------0-------0-------0------|0|-|
D|---------1-1-3-----------1-1-3--------|-|4|
A|--------------------------------------|-|-|
E|--------------------------------------|-|-|

   Adagio(медленнее)
E|3-1-------------1---------|
B|3-----4---3-4313----4---3-|
G|4-------------------------|
D|5-------------------------|
A|5-------------------------|
E|3-------------------------|

E|-----------------------------------------7-7-----------------|
B|-----------------------------------------6-6-0-0-0-1---1-1-1-|
G|-1-1-1-------------------1-1-1-----------7-7---------0-------|
D|-------3-0-0-0-----------------3-----------------------------|
A|---------------2---------------------------------------------|
E|-----------------4-4-4-3---------4-4-4-1---------------------|

E|------------------------------|
B|-0-0-0-3-3------1-1-1-4-4-3-3-|
G|------------------------------|
D|------------------------------|
A|------------------------------|
E|------------------------------|

E|-1-1-0-0-3-3-1-1-4-4-3-3-6-6-4-4-8-8-7-7-10-8-|
B|----------------------------------------------|
G|----------------------------------------------|
D|----------------------------------------------|
A|----------------------------------------------|
E|----------------------------------------------|

E|111111-8--------------|-|--13--------------------|
B|---------8-8-8--------|-|----151512--------------|
G|---------------8------|-|----------121010-7------|
D|----------------10----|-|-------------------9----|
A|------------------1010|6|--------------------10-8|
E|----------------------|-|------------------------|

E|--|--111111-----------------|
B|--|--------13101010---------|
G|--|----------------11-8-8-8-|
D|--|-------------------------|
A|--|-------------------------|
E|10|-------------------------|

              в "-" 1/16
E|--|2|-|-|3|-------|-|-|-|
B|--|4|-|-|3|-------|-|-|-|
G|--|5|-|-|-|--0-0-0|-|-|-|
D|10|-|-|-|-|-------|-|0|-|
A|--|-|-|-|-|-------|3|-|-|
E|--|-|-|-|-|-------|-|-|3|

E|-------------------8-7-810-------------------------8-|
B|---1-0-1-3-------8--------1010-8---1-0-1-3-------8---|
G|-0---------2-2-0-----------------0---------2-2-0-----|
D|-----------------------------------------------------|
A|-----------------------------------------------------|
E|-----------------------------------------------------|

E|-7-810---------------------------------------|
B|------1010-8---1-2-1-------------------------|
G|-------------3-------3-5-3-2-5-7-8-7-5-6-5-4-|
D|---------------------------------------------|
A|---------------------------------------------|
E|---------------------------------------------|

E|---------------------------------|
B|-6-8-9-8-6-8-9-8-6-8-9-8-6-8-9-8-|
G|---------------------------------|
D|---------------------------------|
A|---------------------------------|
E|---------------------------------|

                              |1/8 в "-"
E|----------------------------|15|
B|-7-810-8-7-810-8-7-8-7-8-7-8|--|
G|----------------------------|--|
D|----------------------------|--|
A|----------------------------|--|
E|----------------------------|--|

E|-1715131312------------10-8-----7-5-----5-3---|
B|-----------151313121012-----8-5-----6-3-----4-|
G|----------------------------------------------|
D|----------------------------------------------|
A|----------------------------------------------|
E|----------------------------------------------|

E|-----2-3-2-3141514151715131312------------10-|
B|---0--------------------------151313121012---|
G|-5-------------------------------------------|
D|---------------------------------------------|
A|---------------------------------------------|
E|---------------------------------------------|

E|-8-----7-5-----5-3---------3-3-|
B|---8-5-----6-3-----4-----0-----|
G|---------------------5---------|
D|-----------------------0-------|
A|-------------------------------|
E|-------------------------------|

E|-121212------------------10101012121212-8-|
B|-------13----------------12121213---------|
G|---------121212-9-5-5-5-0---------9-9-9-5-|
D|------------	

Видео для песни "Пятая симфония":

 

Описание аккордов к песне (Генератор аккордов)

 

Еще подборы:

 



Для связи с администратором: killger@gmail.com
©2013 - 2018 портал PesniGitara. Все тексты песен принадлежат их авторам. Копирование некоторых материалов портала только с разрешения администратора!