Кукушка (Би2)

		

Hm

Песен еще ненаписанных, сколько?

A Em Hm

Скажи, кукушка, пропой.

Hm

В городе мне жить или на выселках,

A Em Hm

Камнем лежать или гореть звездой? Звездой.

Chorus: (лучше квинтами)

A G Hm

Солнце мое - взгляни на меня,

(ход)

e||---------------------------|

b||---------------------------|

g||---------------------------| басы

d||---------4-5-4-2-0---------|

a||---2-2-2-------------------|

e||---------------------------|

ИЛИ

e||---------3-2-0-------------|

b||---0-0-0-------3-(2)-------|

g||---------------------------| соляк

d||---------------------------|

a||---------------------------|

e||---------------------------|

A G Hm

Моя ладонь превратилась в кулак,

A G Hm

И если есть порох - дай огня.

A G Hm D Em F#m

Вот так...

Кто пойдет по следу одинокому?

Сильные да смелые головы сложили в поле, в бою.

Мало кто остался в светлой памяти,

В трезвом уме да с твердой рукой в строю, в строю.

Где же ты теперь, воля вольная?

С кем же ты сейчас ласковый рассвет встречаешь? Ответь.

Хорошо с тобой, да плохо без тебя,

Голову да плечи терпеливые под плеть, под плеть.

Видео для песни "Кукушка":

 

Описание аккордов к песне (Генератор аккордов)

  • Em ↓
    Аккорд Em
  • G ↓
    Аккорд G
  • Hm ↓
    Аккорд Hm
  • D ↓
    Аккорд D

 

Еще подборы:

 

Отзывы и комментарии:


Для связи с администратором: killger@gmail.com
©2013 - 2016 портал PesniGitara. Все тексты песен принадлежат их авторам. Копирование некоторых материалов портала только с разрешения администратора!