Варвара (Би2)

		

Gm D# Cm F Gm D# Cm F

Как грустно и очень обычно все вышло

Gm D# Cm F Gm D# Cm F

Ушла от меня и в ночь теперь слезно кричу

Gm D# Cm F Gm D# Cm F

Мне просто обидно шаги одиночества слышать

Gm D# Cm F Gm D# Cm F

И страшно подумать и вряд ли я жизнь доживу

Gm D# Cm F

варвара } 4 раза

Gm D# Cm F Gm D# Cm F

С тобой я готов был бежать на край света

Gm Am(V)? A# Cm D

Hо ты изменила сама ты туда удрала

Gm D# Cm F Gm D# Cm F

Порвалась струна и теперь моя песенка спета

Gm D# Cm F Gm D# Cm F

И жизни мне нет вот такие дела

Gm D# Cm F

варвара } 4 раза

Проигрыш:

G|-------7-8---|------------|------------|-----7-8-|--5--5-------------| BA

D|-------------|------------|------------|---------|-------------------| SS

A|-------------|-3--5-6-5-3-|------------|---------|-3--3---30---------| BA

E|--3-3--------|------------|--111--222--|-3-3-----|-----------111-222-| SS

G|-------7-8---|--5--5------|--------7-8-|---------|-------------------| BA

D|-------------|------------|------------|---------|-------------------| SS

A|-------------|-3--3--30---|------------|-5-------|-------------------| BA

E|--3-3--------|----------1-|-11-2-3-----|---------|-------------------| SS

Когда-то был счастлив а счастье так и ушло

За счастьем несчастье так грустно вот так и пошло

И ждать на крылечке уже бесполезно тебя

Ох как далеко далеко далеко от меня ты

Gm D# Cm F

варвара е-о } 4 раза

Gm D# Cm F

варвара ага угу но где ты } 10 раз

Видео для песни "Варвара":

 

Описание аккордов к песне (Генератор аккордов)

  • Gm ↓
    Аккорд Gm
  • D# ↓
    Аккорд D#
  • Cm ↓
    Аккорд Cm
  • F ↓
    Аккорд F
  • A# ↓
    Аккорд A#

 

Еще подборы:

 

Отзывы и комментарии:


Для связи с администратором: killger@gmail.com
©2013 - 2016 портал PesniGitara. Все тексты песен принадлежат их авторам. Копирование некоторых материалов портала только с разрешения администратора!