× Закрыть

Englisera (BisRock)

		
Verse 1:
G - Bm - C - D 
Aduna koy nabantayan 
Nausab na ang akong sinultian 
May sagol nang inegles 
Like 'whatever' and 'well' 
  Em       D        C 
Sukad nga nakaila tika 
  
Refrain 1:
G - Bm - C - D 
Giingnan ko sa imong friends 
Nga you find kuno baduy 
Ang bisayang pinulongan 
Manlimbawot imong balhibo 
Kung makadungog nag 
    Em      D   C 
Pulong sama sa gugma 
 
Chorus 1:
G - Bm - C - D 
So I say i love you 
Is it okey with you 
Bahala nag makahilak 
Ang lolo kong magbabalak 
I'll tell him 'well my lolo I'm in love not like you 
    Em                      D               C 
I'm not too old to learn an english word or two 
 
Verse 2:
Nagkuyog ta sa sinehan 
Gikataw-an mo ang trailer ni Piolo ug judy ann 
way laing naingon kundi 'whatever' and 'well' 
Dayong gawas sa pultahan 
 
Refrain 2:
Giingnan ko sa imong friends 
nga you find kuno baduy 
Mga pelikulang pinoy 
Bahala nag luod basta gikan sa hollywood 
Always makes you feel so good 
 
(repeat chorus 1) 
 
Solo: 
e|--------------------------------------------------------------------| 
B|-----------------7 7/9 8 7 7/9 8-7-8-7-------7-8-8/9--8-7-8-7-------| 
G|-------------5h7-----------------------7-9-------------------7-9----| 
D|---------5h7--------------------------------------------------------| 
A|------5h7-----------------------------------------------------------| 
E|--3-5---------------------------------------------------------------| 
 
e|-------------------------------------------------------------------------------------| 
B|--8-7-8-7------8-7-8-8/9-8-7-8---121212A010888---7/9-8-7-8-7-----8-7-7/8-------| 
G|----------7-9--------------------121212I111999--------------7-9---------9-11---| 
D|-------------------------------------------------------------------------------------| 
A|-------------------------------------------------------------------------------------| 
E|-------------------------------------------------------------------------------------| 
 
Bridge: 
Unya kalit kang nawala 
Wa ka nagpahibalo 
Niining bisdak nga na-in love kanimo 
I thought kitang duha together forever 
Ako imo diayng gipasakitan 
 
Refrain 3:
Giingnan ko sa imong friends 
Ga nikuyog ka kuno sa imong ka-textmate na kano 
Nanlimbawot akong balahibo sa nasayran ko nga 
Ang kano otsenta na 
 
Chorus 2:
G - Bm - C - D 
Still I say I love you though youre hurting me so 
Bahala nag makahilak ang lolo kung magbabalak 
I'll tell him well my lolo i'm your stupid apo 
        Em         D             C 
Naminaw lang unta ako sa tambag mo 
            Em               D                C 
Now I'm too hurt to learn an english word or two

Видео для песни "Englisera":

 

Описание аккордов к песне (Генератор аккордов)

  • G ↓
    Аккорд G
  • Bm ↓
    Аккорд Bm
  • C ↓
    Аккорд C
  • D ↓
    Аккорд D
  • Em ↓
    Аккорд Em

 

Еще подборы:

 

Отзывы и комментарии:


Для связи с администратором: killger@gmail.com
©2013 - 2018 портал PesniGitara. Все тексты песен принадлежат их авторам. Копирование некоторых материалов портала только с разрешения администратора!