× Закрыть

Brothers And Sisters (Blur)

		
e/---------------------------  
B/---------------------------  
G/--------------------------- Lead Guitar Intro  
D/---------------------------  
A/--6/8------6-----6---------  
E/-------6-8-----8---4-1-----  
 
 
e/--------------------  
B/--------------------  
G/-------------------- Fill-In A  
D/------3-3----------- (Played 5 times thru song {up until 0:58} )  
A/----------3---------  
E/--1-1--1----4-1-----  
 
e/--------------------  
B/--------------------  
G/-------------------- Fill-In B  
D/---3---------------- (Played 5 times {between about 1:17 until about 1:30})  
A/-----3-6------------  
E/--1------6-4-1------  
 
e/--------------------  
B/--------------------  
G/--------1----------- Fill-In C  
D/------3--3---------- (Played once between about 1:30 and 1:33)  
A/--------------------  
E/--1-1---------------  
 
Repeat Fill-In B once (1:33-1:35)  
Repeat Fill-In A once (1:36-1:39)  

Видео для песни "Brothers And Sisters":

 

Описание аккордов к песне (Генератор аккордов)

  • B ↓
    Аккорд B
  • C ↓
    Аккорд C

 

Еще подборы:

 



Для связи с администратором: killger@gmail.com
©2013 - 2018 портал PesniGitara. Все тексты песен принадлежат их авторам. Копирование некоторых материалов портала только с разрешения администратора!