× Закрыть

Cowboy Song (Blur)

		
Intro  
 
e|------------------------------------------  
B|------------------------------------------  
G|------------------------------------------  
D|------------------------------------------  
A|------------3---------3----------3--4---3-  
E|-------5/-------5/---------5/-------------  
 
Main riff  
 
e|----------------  
B|----------------  
G|----------------  
D|------7/--------  
A|------7/---slide down out slowly  
E|------5/--------  
 
Repeat throughout with effects made by keyboard following it  
 
 
Chorus  
 
e|-----------------5--10--9-----------  
B|-------5--7--8----------------------  
G|---7--------------------------------  
D|------------------------------------  
A|------------------------------------  
E|------------------------------------  
 
Hold each note, a slight bit of delay wouldn't go a miss either  
 
 
Riff before solo  
 
e|------------------------------------  
B|------------------------------------  
G|------------------------------------  
D|------------------------------------  
A|------------------------------------  
E|-----5h8p5h8/------5p3h5/-----------  
 
 
Outro  
 
e|------------------------------------------  
B|------------------------------------------  
G|------------------------------------------  
D|------------------------------------------  
A|------------3---------3----------3--4---3-  
E|-------5/-------5/---------5/-------------  

Видео для песни "Cowboy Song":

 

Описание аккордов к песне (Генератор аккордов)

 

Еще подборы:

 



Для связи с администратором: killger@gmail.com
©2013 - 2018 портал PesniGitara. Все тексты песен принадлежат их авторам. Копирование некоторых материалов портала только с разрешения администратора!