× Закрыть

Me White Noise (Blur)

		
e/---------------------  
B/--3--3-3-3-3-3-3-3---  
G/--0--3-3-3-3-3-3-3--- Refrain (2:01-3:18)  
D/--0--3-3-3-3-3-3-3--- (x20)  
A/---------------------  
E/---------------------  
 
e/------------------  
B/------------------  
G/-5-5-5-5-5-5-5-5-- Fill-In  
D/------------------ (Every once in a while this is played)  
A/------------------  
E/------------------  
 
e/------------------------------------  
B/------------------------------------  
G/--5-5-5-5-5-5-5-5-5-5-5-5-5-55555--- 3:18-3:50  
D/------------------------------------ (x8)  
A/------------------------------------  
E/------------------------------------  
 
e/-----------------------------  
B/-----------------------------  
G/----------------------------- 3:50-4:33  
D/----------------------------- (x10)  
A/--1----1------1---1--3-------  
E/----3----3--3----------------  

Видео для песни "Me White Noise":

 

Описание аккордов к песне (Генератор аккордов)

 

Еще подборы:

 



Для связи с администратором: killger@gmail.com
©2013 - 2018 портал PesniGitara. Все тексты песен принадлежат их авторам. Копирование некоторых материалов портала только с разрешения администратора!