× Закрыть

On Your Own (bass) (Blur)

		
G --------------------11-10-9--11-10-9-------------------------
D -------------------------------------------------------------
A --------------------------------------5-6-7-5----------------
E --7-7-5-7--10-12----------------------------7-7-5-7-10-12-2--

G ----4---------4--
D --4-------4-4----
A -----------------
E -----------------

Verse:
G -----------4------4----------4------4-----------4----------4--
D ---------4------4----------4------4-----------4----------4----
A --2-2---------------2-2----------------2-2-0------------------
E ------0------0----------0------0------------------0-0-2-------

G -----------4------4-------4--
D ---------4------4-------4----
A --2-2------------------------
E ------0------0-------0-------

2nd chorus:
G --------------------11-10-9--11-10-9-----------
D ----------------------------------------------- 2x
A ----------5-6-7-----------------------5-6-7----
E --7-6-5-7-------7-0-------------------------5--

G -------------------------------------
D -------------------------------------
A -----------------------7-7-9-9-7-7---
E --7-7-5-5-0-0-2-2--7-7---------------

G --------------------11-10-9--11-10-9-----------
D -----------------------------------------------
A --------------------------------------5-6-7-5--
E --7-7-5-7--10-12-------------------------------

G --------------------11-10-9--11-10-9-----------
D -----------------------------------------------
A --------------------------------------5-6-7-5--
E --7-7-5-7--10-12-------------------------------

G ------------------------------------------------------------------
D ----------------------------------------------------------p-------
A ----------7-7-9-----5--------------------------------9-7-7-0-7-9--
E --7-7-5-5-------5-7---7-7-5-7-10-11-12-2-2-0-0-2-2--------------

3rd chorus:
G --------------------11-10-9--11-10-9-----------
D ----------------------------------------------- 2x
A ----------5-6-7-----------------------5-6-7----
E --7-6-5-7-------7-0-------------------------5--

G -----------------------------------------
D -----------------------------------------
A ----------7-7-9-7-8-9-----5-6-7-9-9-7-7--
E --7-7-5-5-------------7-7----------------

Ending:
G --------------------11-10-9--11-10-9-----------    -----
D ----------------------------------------------- 3x -----
A --------------------------------------5-6-7-5--    -----
E --7-7-5-7--10-12-------------------------------    --2--

Видео для песни "On Your Own (bass)":

 

Описание аккордов к песне (Генератор аккордов)

  • G ↓
    Аккорд G
  • D ↓
    Аккорд D
  • E ↓
    Аккорд E

 

Еще подборы:

 



Для связи с администратором: killger@gmail.com
©2013 - 2018 портал PesniGitara. Все тексты песен принадлежат их авторам. Копирование некоторых материалов портала только с разрешения администратора!