× Закрыть

Wahoo (Blur)

		
Intro  
E  
B  
G--5-5x3-3-3-3-3x8-8-10--12 12 12 12  
D--3-3x1-1-1-1-1x6-6--8--10 10 10 10  
A  
E  
 
Verse:  
 
E----------------------------------------------------  
B----------------------------------------------------  
G----------------------------------------------------  
D--10-10-10-10-8-8-8-8---13-13-15-17--17-17-17-17----  
A--8--8--8--8--6-6-6-6---11-11-13-15--15-15-15-15----  
E--8--8--8--8--6-6-6-6---11-11-13-15--15-15-15-15----  
 
 
Chorus: (x3)  
E----------------------------------------------------  
B----------------------------------------------------  
G----------------------------------------------------  
D--10-10-10-10--8-8-8-8---13-13-15-17--17-17-17-17---  
A--8--8--8--8---6-6-6-6---11-11-13-15--15-15-15-15---  
E--8--8--8--8---6-6-6-6---11-11-13-15--15-15-15-15---  
 
then  
E----------------------------------------------------  
B----------------------------------------------------  
G----------------------------------------------------  
D--10-10-10-10--10-10-10-10--13-13-13-13--13-13-13-13  
A--8--8--8--8---8--8--8--8---11-11-11-11--11-11-11-11  
E--8--8--8--8---8--8--8--8---11-11-11-11--11-11-11-11  
 
E----------------------------------------------------  
B----------------------------------------------------  
G----------------------------------------------------  
D--3-3-3-3----3-3-3-3----3-3-3-3----3-3-3-3----------  
A--4-4-4-4----4-4-4-4----4-4-4-4----4-4-4-4----------  
E--4-4-4-4----4-4-4-4----4-4-4-4----4-4-4-4----------  
 
 
outro  
E-------------------------------------------------------  
B-------------------------------------------------------  
G-------------------------------------------------------  
D--10-10-10-10--8-8-8-8---13-13-15-17--17-17-17-17------  
A--8--8--8--8---6-6-6-6---11-11-13-15--15-15-15-15------  
E--8--8--8--8---6-6-6-6---11-11-13-15--15-15-15-15------  
 
 
E-------------------------------------------------------  
B-------------------------------------------------------  
G-----------------------------------------------------3-  
D--10-10-10-10--8-8-8-8--13-13-15-17--17-17-17-17-10----  
A--8--8--8--8---6-6-6-6--11-11-13-15--15-15-15-15-8-----  
E--8--8--8--8---6-6-6-6--11-11-13-15--15-15-15-15-8-----  

Видео для песни "Wahoo":

 

Описание аккордов к песне (Генератор аккордов)

  • E ↓
    Аккорд E
  • B ↓
    Аккорд B

 

Еще подборы:

 



Для связи с администратором: killger@gmail.com
©2013 - 2018 портал PesniGitara. Все тексты песен принадлежат их авторам. Копирование некоторых материалов портала только с разрешения администратора!