× Закрыть

Ты молот (Чёрный Кофе)

		
Hm                G
Ты был молод и горд,
A                   Hm
И строить свой дом только начал.
G                 Em
Ты брал жизнь в оборот,
A                  Hm
Но теперь  вс иначе.
Em                       F Em
Ты думал вс за деньги...

Вот твой дом на горе
Не крепость тебе, а тюрьма.
Сон развеялся где: что ты видел
Светом, вс тьма.

Припев:
Em                 Hm
Ты построил свой дом горбом,
D                   Em
Но не в радость тебе он, в тягость.
Am                  Em
Не найдшь ты в нм даже днм с огнм
D                    Em         
Угол, где спрятана святость.

Скоро рухнет твой дом,
Решай что спасать: дом иль душу?
Но ты  то закрываешь руками
Глаза, то уши.

C#m             A
Ты был молод и горд,
     H                     C#m     
И строить свой дом только начал.
A                 F#m
Ты брал жизнь в оборот,
H                 C#
Но теперь  вс иначе.
Проигрыш: E
Ты думал вс за деньги... 

Припев



     Q    Q    Q    Q       Q    Q    Q    Q       Q    Q     
E||----------------------|----------------------|------------|
B||----------------------|----------------------|------------|
G||----------------------|----------------------|------------|
D||----------------------|----------------------|------------|
A||--4----4----2----4----|-------2---------7----|-------4----|
E||--2----2----0----2----|-------0---------5----|-------2----|


  ^      TP   TP    TP      ^                      TP     TP   TP    TP    
  Q      Q    Q     Q       Q    Q    Q    Q       Q      Q    Q     Q     
-------------------------|----------------------|-------------------------|
-------------------------|----------------------|-------------------------|
-------------------------|----------------------|-------------------------|
-------------------------|----------------------|-------------------------|
--4------4----4-----4----|--4-------------------|--4------4----4-----4----|
--2h~----2----2h----2----|--2----3----2----0----|--2h~----2----2h----2----|


  TP                      TP     TP   TP    TP      TP                    
  Q     Q    Q    Q       Q      Q    Q     Q       Q     Q    Q    Q     
-----------------------|-------------------------|-----------------------|
-----------------------|-------------------------|-----------------------|
-----------------------|-------------------------|-----------------------|
-----------------------|-------------------------|-----------------------|
--4--------------------|--4------4----4-----4----|--4--------------------|
--2S----3----2----0----|--2h~----2----2h----2----|--2S----3----2----0----|


  TP     TP   TP    TP      TP                      TP     TP   TP    TP    
  Q      Q    Q     Q       Q     Q    Q    Q       Q      Q    Q     Q     
-------------------------|-----------------------|-------------------------|
-------------------------|-----------------------|-------------------------|
-------------------------|-----------------------|-------------------------|
-------------------------|-----------------------|-------------------------|
--4------4----4-----4----|--4--------------------|--4------4----4-----4----|
--2h~----2----2h----2----|--2S----3----2----0----|--2h~----2----2h----2----|


  TP                      TP     TP   TP    TP      TP                    
  Q     Q    Q    Q       Q      Q    Q     Q       Q     Q    Q    Q     
-----------------------|-------------------------|-----------------------|
-----------------------|-------------------------|-----------------------|
-----------------------|-------------------------|-----------------------|
-----------------------|-------------------------|-----------------------|
--4--------------------|--4------4----4-----4----|--4--------------------|
--2S----3----2----0----|--2h~----2----2h----2----|--2S----3----2----0----|


                                                    Ты был молот и горд  
  ^      TP   TP    TP      TP                      >                    
  Q      Q    Q     Q       Q     Q    Q    Q       Q                    
-------------------------|-----------------------|----------------------|
-------------------------|-----------------------|----------------------|
-------------------------|-----------------------|----------------------|
-------------------------|-----------------------|--6-------------------|
--4------4----4-----4----|--4--------------------|--4-------------------|
--2h~----2----2h----2----|--2S----3----2----0----|----------------------|


                          И строить свой дом только начал.                   
          >               >                                            >     
          Q               Q                                            Q     
-------|-------|-------|-----------------------------------|-------|--------|
-------|-------|-------|-----------------------------------|-------|--------|
-------|-------|-------|-----------------------------------|-------|--------|
-------|--2----|-------|-----------------------------------|-------|--------|
-------|--0----|-------|--9--------------------------------|-------|--11----|
-------|-------|-------|--7--------------------------------|-------|---9----|


          Ты брал жизнь в оборот                          
          >                                               
          Q                                 Q             
-------|-------------------------|-------|-------|-------|
-------|-------------------------|-------|-------|-------|
-------|-------------------------|-------|-------|-------|
-------|-------------------------|-------|-------|-------|
-------|--7----------------------|-------|--4----|-------|
-------|--5----------------------|-------|--2----|-------|


  Но теперь все иначе.                           
  Q                                Q             
-----------------------|-------|--------|-------|
-----------------------|-------|--------|-------|
-----------------------|-------|--------|-------|
-----------------------|-------|--------|-------|
--9--------------------|-------|--11----|-------|
--7--------------------|-------|---9----|-------|


  Ты думал все за деньги                                          
  TP                      TP   TP    TP      TP                    
  Q                       Q    Q     Q       Q     Q    Q    Q     
------------------------------------------|-----------------------|
------------------------------------------|-----------------------|
------------------------------------------|-----------------------|
------------------------------------------|-----------------------|
--4-----------------------4----4-----4----|--4--------------------|
--2h~---------------------2----2h----2----|--2S----3----2----0----|


  TP     TP   TP    TP      TP                      TP     TP   TP    TP    
  Q      Q    Q     Q       Q     Q    Q    Q       Q      Q    Q     Q     
-------------------------|-----------------------|-------------------------|
-------------------------|-----------------------|-------------------------|
-------------------------|-----------------------|-------------------------|
-------------------------|-----------------------|-------------------------|
--4------4----4-----4----|--4--------------------|--4------4----4-----4----|
--2h~----2----2h----2----|--2S----3----2----0----|--2h~----2----2h----2----|


  TP                      TP     TP   TP    TP      TP                    
  Q     Q    Q    Q       Q      Q    Q     Q       Q     Q    Q    Q     
-----------------------|-------------------------|-----------------------|
-----------------------|-------------------------|-----------------------|
-----------------------|-------------------------|-----------------------|
-----------------------|-------------------------|-----------------------|
--4--------------------|--4------4----4-----4----|--4--------------------|
--2S----3----2----0----|--2h~----2----2h----2----|--2S----3----2----0----|


  TP     TP   TP    TP      TP                      TP     TP   TP    TP    
  Q      Q    Q     Q       Q     Q    Q    Q       Q      Q    Q     Q     
-------------------------|-----------------------|-------------------------|
-------------------------|-----------------------|-------------------------|
-------------------------|-----------------------|-------------------------|
-------------------------|-----------------------|-------------------------|
--4------4----4-----4----|--4--------------------|--4------4----4-----4----|
--2h~----2----2h----2----|--2S----3----2----0----|--2h~----2----2h----2----|


  TP                      >               >               >             
  Q     Q    Q    Q       Q               Q               Q             
-----------------------|-------|-------|-------|-------|-------|-------|
-----------------------|-------|-------|-------|-------|-------|-------|
-----------------------|-------|-------|-------|-------|-------|-------|
-----------------------|--6----|-------|--2----|-------|-------|-------|
--4--------------------|--4----|-------|--0----|-------|--9----|-------|
--2S----3----2----0----|-------|-------|-------|-------|--7----|-------|


   >               >                                                      
   Q               Q               Q               Q                Q     
--------|-------|-------|-------|-------|-------|-------|-------|--------|
--------|-------|-------|-------|-------|-------|-------|-------|--------|
--------|-------|-------|-------|-------|-------|-------|-------|--------|
--------|-------|-------|-------|-------|-------|-------|-------|--------|
--11----|-------|--7----|-------|--4----|-------|--9----|-------|--11----|
---9----|-------|--5----|-------|--2----|-------|--7----|-------|---9----|


          Ты построил свой дом горбом                                        
          TP                          TP   TP   TP      TP   TP   TP   TP    
          Q                           Q    Q    Q       Q    Q    Q    Q     
-------|---------------------------------------------|----------------------|
-------|---------------------------------------------|----------------------|
-------|---------------------------------------------|----------------------|
-------|---------------------------------------------|----------------------|
-------|--4------------------------------------------|----------------------|
-------|--2---------------------------2----2----2----|--2----2----2----2----|


   TP   TP   TP   TP      TP   TP   TP   TP      TP   TP   TP   TP    
   Q    Q    Q    Q       Q    Q    Q    Q       Q    Q    Q    Q     
-----------------------|----------------------|----------------------|
-----------------------|----------------------|----------------------|
-----------------------|----------------------|----------------------|
-----------------------|----------------------|----------------------|
--11-------------------|----------------------|--4-------------------|
---9----9----9----9----|--9----9----9----9----|--2----2----2----2----|


  TP   TP   TP   TP      TP   TP   TP   TP      TP   TP   TP   TP    
  Q    Q    Q    Q       Q    Q    Q    Q       Q    Q    Q    Q     
----------------------|----------------------|----------------------|
----------------------|----------------------|----------------------|
----------------------|----------------------|----------------------|
----------------------|----------------------|----------------------|
----------------------|--7-------------------|----------------------|
--2----2----2----2----|--5----5----5----5----|--5----5----5----5----|


  TP   TP   TP   TP      TP   TP   TP   TP      TP   TP   TP   TP    
  Q    Q    Q    Q       Q    Q    Q    Q       Q    Q    Q    Q     
----------------------|----------------------|----------------------|
----------------------|----------------------|----------------------|
----------------------|----------------------|----------------------|
----------------------|----------------------|----------------------|
--4-------------------|----------------------|--9-------------------|
--2----2----2----2----|--2----2----2----2----|--7----7----7----7----|


  TP   TP   TP   TP      TP   TP   TP   TP      TP   TP   TP   TP    
  Q    Q    Q    Q       Q    Q    Q    Q       Q    Q    Q    Q     
----------------------|----------------------|----------------------|
----------------------|----------------------|----------------------|
----------------------|----------------------|----------------------|
----------------------|----------------------|----------------------|
----------------------|--4-------------------|----------------------|
--7----7----7----7----|--2----2----2----2----|--2----2----2----2----|


  TP   TP   TP   TP      TP   TP   TP   TP      TP     TP   TP    TP    
  Q    Q    Q    Q       Q    Q    Q    Q       Q      Q    Q     Q     
----------------------|----------------------|-------------------------|
----------------------|----------------------|-------------------------|
----------------------|----------------------|-------------------------|
----------------------|----------------------|-------------------------|
--7-------------------|----------------------|--4------4----4-----4----|
--5----5----5----5----|--5----5----5----5----|--2h~----2----2h----2----|


  TP                      TP     TP   TP    TP      TP                    
  Q     Q    Q    Q       Q      Q    Q     Q       Q     Q    Q    Q     
-----------------------|-------------------------|-----------------------|
-----------------------|-------------------------|-----------------------|
-----------------------|-------------------------|-----------------------|
----------------------	

Видео для песни "Ты молот":

 

Описание аккордов к песне (Генератор аккордов)

  • Hm ↓
    Аккорд Hm
  • G ↓
    Аккорд G
  • Em ↓
    Аккорд Em
  • F ↓
    Аккорд F
  • D ↓
    Аккорд D
  • Am ↓
    Аккорд Am
  • C#m ↓
    Аккорд C#m
  • H ↓
    Аккорд H
  • F#m ↓
    Аккорд F#m
  • C# ↓
    Аккорд C#
  • E ↓
    Аккорд E

 

Еще подборы:

 



Для связи с администратором: killger@gmail.com
©2013 - 2019 портал PesniGitara. Все тексты песен принадлежат их авторам. Копирование некоторых материалов портала только с разрешения администратора!