Звезда (Дельфин)

		

У края дня

Ночь упивалась тишиной

Птиц хороня

За серебристою листвой

Немая топь

Бессмертья солнечных ветров

Спускалась вновь

Росой на лепестки цветов

Припев:

2|--0-0--|-0-0-0-|

3|-------|-------|

4|-------|-------|

5|-------|-------|

6|-4-4-4-|--4-4--|

Искра света

2|--0-0--|-0-0-0-|

3|-------|-------|

4|-2-2-2-|--2-2--|

Фейрверк

2|--0-0--|-0-0-0-|

3|-------|-------|

4|-------|-------|

5|-------|-------|

6|-4-4-4-|--4-4--|

Вспыхнул где то

2|--0-0--|-0-0---|

3|-------|----3--|

4|-2-2-2-|--2--2-|

И померк, сгорел

3|--3-|--3--|----|-----|

4|-1--|-1-1-|-2--|-2-2-|

5|----|-----|--4-|--4--|

Ярким огнем до тла

Успел кто-то сказать

Звезда

Он был один

Устало ждал ее шагов

И бездна льдин

Его расширеных зрачков

Смотрела вверх

В лицо сверкающей луне

Он слышлал смех

И умирал на самом дне

Тема из припева без голоса

Она давно спала

В ней теплился рассвет

И таяла луна

И бледный дымный след

Припев

Видео для песни "Звезда":

 

Описание аккордов к песне (Генератор аккордов)

 

Еще подборы:

 

Отзывы и комментарии:


Для связи с администратором: killger@gmail.com
©2013 - 2016 портал PesniGitara. Все тексты песен принадлежат их авторам. Копирование некоторых материалов портала только с разрешения администратора!