× Закрыть

Les hauts quartiers de peine (Dominique A)

		
Une jolie valse qui boite.......  
J'ai mis la petite melodie d'Intro a la guitare a la fin.  
Les remarques sont les bienvenues.  
Je persiste a penser qu'une mailing list serait quelque chose  
de bien.  
A C#m F#m E  
Pour une fois, tranquille, decide  
A C#m F#m E  
Pas a pas nous regagnons les  
A C#m F#m E  
Les hauts quartiers de peine, les avait-on quittes  
A C#m C#m E  
Le plus dur s'acheve, tu m'en vois  
 D C#m  
desole  
Tout en bas nous nous sommes laisses  
Aller a croire ces hauts quartiers  
Loin de nous alors meme, qu'on ne cessait d'y penser  
Un faux pas et pas d'autre choix qu'y  
retourner  
Pour une fois, tranquille, decide  
Pas a pas nous regagnons les  
Les hauts quartiers de peine, les avait-on quittes  
Sitot la tu parles deja de  
redescendre  
Redescendre c'est complique  
J'ai pris gout a ces hauts quartiers  
Ces hauts lieux sans relief, ces contours arretes  
Quand en bas tant peinent a s'aimer  
puis remontent  
 
Petite melodie:  
Sur les cordes de mi (aigue) et si  
[e:----9----9----9----10----10----9-  
B:-10---10---10---12----12----10---  
 
e:---7---7---7---7---7---  
B:-9---9---9---9---9---9-  
 
e:---5---5-7-5---5---5---  
B:-7---7-------7---7---7-  
 
e:---7---7---9---9---7---  
B:-9---9---9---9---9---9-  
 
e:----9----9----9----10----10----9-  
B:-10---10---10---12----12----10---  
 
e:---7---7---7----10----9---7-  
B:-9---9---9---12----10---9---  
 
e:---5---5---5---5---5---  
B:-7---7---7---7---7---7-  
 
e:---4---4---4----------  
B:-5---5---5---5-7-9-10-]

Видео для песни "Les hauts quartiers de peine":

 

Описание аккордов к песне (Генератор аккордов)

  • C#m ↓
    Аккорд C#m
  • F#m ↓
    Аккорд F#m
  • E ↓
    Аккорд E
  • D ↓
    Аккорд D

 

Еще подборы:

 



Для связи с администратором: killger@gmail.com
©2013 - 2018 портал PesniGitara. Все тексты песен принадлежат их авторам. Копирование некоторых материалов портала только с разрешения администратора!