Блюз (Х.. забей)

		

Вступление:

e------10-----13-10------------12-10-8-----3--------------------8----

b-10-----------------------12-----------------7--1----------------10-10--

g-----------10---------12----12-----------------3-----11---12-------

D--------------------------------------------------------12---12-----------

A-----------------------------------------------------------------------------

E-----------------------------------------------------------------------------

e-1-----------------------------------------------------1------------10---------

b-1------0----------------------------1---------------1---10-13-----10-----

g-2----1------------9-10-9-7-5-2--2--7-5-2--2---------------------------

D----2------9-12-------------------2---------------------------------------------

A-------------------------------------------------------------------------------------

E-------------------------------------------------------------------------------------

e-----12-----------------------------------------------------

b-13--------------------------------------------------------

g-----------------------------------------------------------

D-----------------------------------------------------------

A-----------------------------------------------------------

E-----------------------------------------------------------

Am Dm7

В совдепе рождаются стремные дети.

Am

Из них вырастают дебильные дяди.

Dm Am

А ну его на хуй.

Видео для песни "Блюз":

 

Описание аккордов к песне (Генератор аккордов)

  • Am ↓
    Аккорд Am
  • Dm ↓
    Аккорд Dm

 

Еще подборы:

 

Отзывы и комментарии:


Для связи с администратором: killger@gmail.com
©2013 - 2016 портал PesniGitara. Все тексты песен принадлежат их авторам. Копирование некоторых материалов портала только с разрешения администратора!