Джейсон Форрис (Х.. забей)

		

Fill 1

Мне приснился Джейсон Форрис.

Крейзи дэт в хоккейной маске.

Я ебал такие сны.

Я не люблю такие таски.

Fill 2

Топором мне угрожая.

Он за мной всю ночь гонялся.

Хорошо, что я проснулся.

А не то бы обосрался.

(небольшой проигрыш)

e|---------|

b|---------|

g|---------|

D|-5-5-5---|

A|-5-5-5---|

E|-3-3-3---|

Джейсон Форрис. } 4 раза

e|-12--10-8------------------------------------|

b|----------------10---------------------------------|

Solo

e|----------10----------11---------10---------------------|

b|-13-10----13-10----13-10----13-10--------------|

g|---------------------------------------------------9------------|

D|----------------------------------------------------------------|

A|-----------------------------------------------|

E|-----------------------------------------------|

Видео для песни "Джейсон Форрис":

 

Описание аккордов к песне (Генератор аккордов)

 

Еще подборы:

 

Отзывы и комментарии:


Для связи с администратором: killger@gmail.com
©2013 - 2016 портал PesniGitara. Все тексты песен принадлежат их авторам. Копирование некоторых материалов портала только с разрешения администратора!