× Закрыть

Wicked Game (bass) (Isaak Chris)

		
Intro
|----------|----------|----------|-------------|---------|----------|
|----------|----------|----------|-------------|---------|----------|
|--2--2-2--|--0--0-0--|----------|----------01-|-2--2-2--|--0--0-0--|
|----------|----------|--0--0-0--|--0--0-0-----|---------|----------|

|----------|-------------|---------|-----------|----------|-------------|
|----------|-------------|---------|-----------|----------|-------------|
|----------|-------2-----|-2--2-2--|--0--0-0---|----------|-------2-----|
|--0--0-0--|--0--0----0--|---------|-----------|--0--0-0--|--0--0----0--|

Verse 1 0:35
|----------|----------|----------|-------------|---------|----------|
|----------|----------|----------|-------------|---------|----------|
|--2--2-2--|--0--0-0--|----------|----------01-|-2--2-2--|--0--0-0--|
|----------|----------|--0--0-0--|--0--0-0-----|---------|----------|

|----------|-------------|---------|-----------|----------|-------------|
|----------|-------------|---------|-----------|----------|-------------|
|----------|-------2-----|-2--2-2--|--0--0-0---|----------|-----------01|
|--0--0-0--|--0--0----0--|---------|-----------|--0--0-0--|--0--0-0-----|

|----------|----------|----------|-------------|----------|----------|
|----------|----------|----------|-------------|----------|----------|
|--2--2-2--|--0--0-0--|----------|-------2-----|--2--2-2--|--0--0-0--|
|----------|----------|--0--0-0--|--0--0-----0-|----------|----------|

|----------|--------------|
|----------|--------------|
|----------|-----------01-|
|--0--0-0--|--0--0-0------|

Chorus 1:10
|----------|-----------|----------|-------------|------------|-----------|
|------4---|-----------|----------|-------------|--------4---|-----------|
|-2--2---2-|--0--0-0---|----------|-------2-----|--2--2---2--|--0--0-0---|
|----------|-----------|--0--0-0--|--0--0-----0-|------------|-----------|

|----------|------------|
|----------|------------|
|----------|----------0-|
|--0--0-0--|--0--0-0----|

Bridge 1:26
|----------|-----------|----------|------------|----------|-----------|
|----------|-----------|----------|------------|-------4--|-----------|
|--2--2-2--|--0--0-0---|----------|-------2----|-2--2---2-|--0--0-0---|
|----------|-----------|--0--0-0--|--0--0----0-|----------|-----------|

|----------|--------------|
|----------|--------------|
|----------|-----------01-|
|--0--0-0--|--0--0-0------|

Verse 2 1:44
|---------|-----------|----------|-------------|---------|-----------|
|---------|-----------|----------|-------------|---------|-----------|
|-2--2-2--|--0--0-0---|----------|-------2-----|-2--2-2--|--0--0-0---|
|---------|-----------|--0--0-0--|--0--0----0--|---------|-----------|

|----------|-------------|-----------|----------|----------|----------|
|----------|-------------|------4----|----------|----------|----------|
|----------|------------0|--2--2---2-|--0--0-0--|----------|----------|
|--0--0-0--|--0--0-0-----|-----------|----------|--0--0-0--|--0--0-0--|

|----------|----------|----------|--------------|
|----------|----------|----------|--------------|
|--2--2-2--|--0--0-0--|----------|-----------01-|
|----------|----------|--0--0-0--|--0--0-0------|

Chorus 2:18
|----------|-----------|----------|-------------|-----------|----------|
|------4---|-----------|----------|-------------|--------4--|----------|
|-2--2---2-|--0--0-0---|----------|-------2-----|--2--2---2-|--0--0-0--|
|----------|-----------|--0--0-0--|--0--0-----0-|-----------|----------|

|----------|------------|
|----------|------------|
|----------|----------01|
|--0--0-0--|--0--0-0----|

Bridge 2:35
|------------|----------|----------|------------|-----------|-----------|
|-------4----|----------|----------|------------|-------4---|-----------|
|--2--2---2--|--0--0-0--|----------|-------2----|-2--2---2--|--0--0-0---|
|------------|----------|--0--0-0--|--0--0----0-|-----------|-----------|

|----------|-------------|------------|----------|----------|------------|
|----------|-------------|------------|----------|----------|------------|
|----------|-----------01|--2--2---2--|--0--0-0--|----------|-------2----|
|--0--0-0--|--0--0-0-----|--------2---|----------|--0--0-0--|--0--0----0-|

|-------------|----------|----------|------------|
|-------------|----------|----------|------------|
|--2--2---2---|--0--0-0--|----------|---------01-|
|--------2----|----------|--0--0-0--|--0--0-0----|

Verse 3 3:09
|---------|----------|----------|-------------|---------|-----------|
|---------|----------|----------|-------------|---------|-----------|
|-2--2-2--|--0--0-0--|----------|-------2-----|-2--2-2--|--0--0-0---|
|---------|----------|--0--0-0--|--0--0----0--|---------|-----------|

|----------|-------------|---------|----------|----------|-------------|
|----------|-------------|---------|----------|----------|-------------|
|----------|-----------01|--2--2-2-|--0--0-0--|----------|-------2-----|
|--0--0-0--|--0--0-0-----|---------|----------|--0--0-0--|--0--0----0--|

|----------|----------|----------|--------------|
|----------|----------|----------|--------------|
|--2--2-2--|--0--0-0--|----------|-----------01-|
|----------|----------|--0--0-0--|--0--0-0------|

Chorus - 3:42
|----------|-----------|----------|-------------|-----------|----------|
|------4---|-----------|----------|-------------|--------4--|----------|
|-2--2---2-|--0--0-0---|----------|-------2-----|--2--2---2-|--0--0-0--|
|----------|-----------|--0--0-0--|--0--0-----0-|-----------|----------|

|----------|------------|
|----------|------------|
|----------|----------01|
|--0--0-0--|--0--0-0----|

Outro - 4:00 (Repeat Outro 3X)
|----------|-----------|----------|-------------|-------------|----------|
|------4---|-----------|----------|-------------|--------4----|----------|
|-2--2---2-|--0--0-0---|----------|-------2-----|--2--2----2--|--0--0-0--|
|----------|-----------|--0--0-0--|--0--0-----0-|-------------|----------|

End
|----------|------------||---|
|----------|------------||---|
|----------|----------01||-2-|
|--0--0-0--|--0--0-0----||---|

Видео для песни "Wicked Game (bass)":

 

Описание аккордов к песне (Генератор аккордов)

 

Еще подборы:

 



Для связи с администратором: killger@gmail.com
©2013 - 2018 портал PesniGitara. Все тексты песен принадлежат их авторам. Копирование некоторых материалов портала только с разрешения администратора!