× Закрыть

Горобовщик (Король и Шут)

		
Вступление (1й куплет):
|-----------------------|-----------------------|
|-----------------------|-----------------------|
|-----------------------|-----------------------|
|-------------9----9----|-------------9----9----|
|-------5/----7----7----|-------5/----7----7----|
|--7--------------------|--7--------------------|
   
|-----------------------|-----------------------|
|-----------------------|-----------------------|
|-----------------------|-----------------------|
|-----------------------|-----------------------|
|--5/----7----9----9----|--5/----7----9----9----|
|-------------7----7----|-------------7----7----|

Мы прощались на пароме
Прохрипел мне ямщик
У погоста в дряхлом доме
Дед живет - гробовщик

G                           F#
Год назад его нечистый дух попутал
G                   A
Его рассудок мрак окутал

Припев:
G                     E
А в деревне гробовая тишина
F#                    B
Как будто вымер весь народ
G                     E
Странная молитва с кладбища слышна
F#                    B
Из дома где старик живет
G       F#
О чем поет
G       A
Кого завет

  G                     Em
Сумерки сгущались и в какой-то миг
  F#              Bm
Похолодела кровь моя
  G                     Em
В воздухе завис под кладбищем старик
  F#              Bm
И шорохи услышал я

 G                     Em
Что-то по латыне он сказал
  F#              Bm
Гробы открылись в полумгле
 G                     Em
В сторону мою рукой он указал
 F#                 G
И тени двинулись ко мне

Видео для песни "Горобовщик":

 

Описание аккордов к песне (Генератор аккордов)

  • G ↓
    Аккорд G
  • F# ↓
    Аккорд F#
  • E ↓
    Аккорд E
  • B ↓
    Аккорд B
  • Em ↓
    Аккорд Em
  • Bm ↓
    Аккорд Bm

 

Еще подборы:

 

Отзывы и комментарии:


Для связи с администратором: killger@gmail.com
©2013 - 2018 портал PesniGitara. Все тексты песен принадлежат их авторам. Копирование некоторых материалов портала только с разрешения администратора!