× Закрыть

Спятил отец (Король и Шут)

		

A F#m

Кругом одни дельцы, и не с кем детям поиграть,

Hm C#m E

А ведь у них уже давно потехи час,

Hо вот пришл отец и хочет уходить опять,

Они ему кричат: "Hу посмотри на нас".

Припев:

D E A F#m

Спятил отец, а значит нам конец,

Hm E A F#m

Он вс это долго терпел.

D E A F#m

Вот так беда, спасайся кто куда,

Hm E A F#m

Его оторвали от дел.

A F#m A F#m Hm C#m E

А что ему до них - он очень важный человек,

Ведь подчиннных у него, как крыс.

К нему со всей душой, а он же - головою в снег,

К нему со всей душой, а он: "А ну-ка брысь".

Припев:

Спятил отец, а знаит нам конец,

Он вс это долго терпел.

Вот так беда, спасайся кто куда,

Его оторвали от дел.

A F#m

E|---------------------------------0-2----------------|

H|---2--2--0--2--0-2--0-2--------2--2--0-2--|

Hm C#m E

E|------------------------------------0--0--0--------|

H|---3--3--2--3--2-3--0-2-3------------2-0--|

A F#m

E|----------------------------------0-2----------------|

H|---2--2--0--2--0-2--0-2---------2--2--0-2--|

Hm C#m E

E|---------------------------------0-0----------------|

H|---3--3--2--3--2-3--2-3--------3--2----0--|

Он в них кидает стулья, он ломает шалаши,

Он им грозится руки оторвать.

"Вы просто дьяволята, а никак не малыши,

Hу довели папашу, вашу мать".

Припев:

Спятил отец, а знаит нам конец,

Он вс это долго терпел.

Вот так беда, спасайся кто куда,

Его оторвали от дел.

Видео для песни "Спятил отец":

 

Описание аккордов к песне (Генератор аккордов)

  • Hm ↓
    Аккорд Hm
  • C#m ↓
    Аккорд C#m
  • D ↓
    Аккорд D
  • E ↓
    Аккорд E
  • F#m ↓
    Аккорд F#m

 

Еще подборы:

 



Для связи с администратором: killger@gmail.com
©2013 - 2018 портал PesniGitara. Все тексты песен принадлежат их авторам. Копирование некоторых материалов портала только с разрешения администратора!