× Закрыть

Яблони (Ляпис Трубецкой)

		
|--8---7-8-5--------------------5---7---5-7-3------------------------ 
|----5-------5---5------7---8---------0-------0---0------5---7---8--- 
|--------------5------5---5---5---5-------------0------0---0---0---0- 
|-------------------------------------------------------------------- 
|--0---------------0------------------------------------------------- 
|-----------------------------------0---------------0---------------- 
  
----------5----------------------8-7-8-5-7-5-3-5-3-2-3-2-0--| 
------5-------5-------4--------7----------------------------| 
----5---5---5---5---5---5----8------------------------------| 
-4----------------4--------7--------------------------------| 
------------------------------------------------------------| 
-----------------------------------0------------------------| 
 
  Em             Am          B7               Em  
Когда яблони расцветут, я приду к тебе с цветами. 
Ты посмотришь в окно - я уже тут, стою с босыми ногами. 
Ты скажешь: "Как хорошо, что ты пришел с цветами, 
Но только я не пойму, че с твоими ногами?" 
Ах, это роса мои замочила сандалии, 
Зато твои глаза блестят, как две медали. 
 
Припев: 
      Em          Am           D                G  
     Когда яблони цветут, всем девчонкам нравится, 
      Em            Am               B7              Em  
     Че бы им цветы дарили и красивым и не красавицам. 
     Когда яблони цветут, всем девчонкам хочется, 
     Че бы им цветы дарили, им без этого не можется. 
 
Когда яблони расцветут, я приду к тебе с цветами. 
Ты посмотришь в окно - я уже тут со стрижеными волосами. 
Ты скажешь: "Как хорошо, что ты пришел с цветами, 
Но только я не пойму, че с твоими волосами?" 
Ах, это парикмахер меня постриг в парикмахерской, 
Зато свою прическу я нахожу новаторской. 
 
Припев 
 
Я пропел вам песню про любовь земную, 
Сейчас еще раз припев, а потом пойду я... 
 
Припев

Видео для песни "Яблони":

 

Описание аккордов к песне (Генератор аккордов)

  • Em ↓
    Аккорд Em
  • Am ↓
    Аккорд Am
  • B7 ↓
    Аккорд B7
  • D ↓
    Аккорд D
  • G ↓
    Аккорд G

 

Еще подборы:

 



Для связи с администратором: killger@gmail.com
©2013 - 2019 портал PesniGitara. Все тексты песен принадлежат их авторам. Копирование некоторых материалов портала только с разрешения администратора!