Березы (Любэ)

		

Am Dm(5 lad) Gm C Am

От чего так в России березы шумят?

Dm G C Am

От чего белоствольные все понимают?

Dm E F Dm

У дорог, прислонившись по ветру, стоят

Am E Am

И листву так печально кидают

Я пойду по дороге - простору я рад

Может это лишь все, что я в жизни узнаю

От чего так печальные листья летят

Под рубахою душу лаская

1|----------------------------|

2|-----0---1---3---1---0-| } 3 раза

3|-2-------------------------|

Припев:

A Dm G C Am

А на сердце опять горячо горячо

Dm E Am

И опять и опять без ответа

А листочек с березки упал на плечо

Он как и я оторвался от веток

Посидим на дорожку, родная, с тобой

Ты пойми я вернусь - не печалься, не стоит

И старуха махнет на прощанье рукой

И за мною калитку закроет

От чего так в России березы шумят?

От чего хорошо так гармошка играет?

Пальцы ветром по кнопочкам враз пролетят

А последнее ввек западает

1|----------------------------|

2|-----0---1---3---1---0-| } 3 раза

3|-2-------------------------|

Припев } 2 раза

Dm(5 Lad): Bare(V)

1|--5-------------------------|

2|------------6----------6---|

3|--------7-----------7------|

4|-----------------7----------|

5|--5-------------------------|

Видео для песни "Березы":

 

Описание аккордов к песне (Генератор аккордов)

  • Am ↓
    Аккорд Am
  • Gm ↓
    Аккорд Gm
  • C ↓
    Аккорд C
  • Dm ↓
    Аккорд Dm
  • G ↓
    Аккорд G
  • E ↓
    Аккорд E
  • F ↓
    Аккорд F

 

Еще подборы:

 

Отзывы и комментарии:


Для связи с администратором: killger@gmail.com
©2013 - 2016 портал PesniGitara. Все тексты песен принадлежат их авторам. Копирование некоторых материалов портала только с разрешения администратора!