× Закрыть

Chances Are (Marley Bob)

		
 Verse:
 E-|-----|---3--|-------|--------|---3--|---3-| || 
 B-|-----|--4-4-|---2---|--0-3-0-|--3-3-|--4-4| || 
 G-|-----|-3---3|--2-2--|-0------|-3----|-3---| .|| 
 D-|-----|0-----|-4-----|--------|------|0----| .|| 
 A-|0-2-4|------|4------|--------|0----0|-----| || 
 E-|-----|------|------2|3------3|------|-----| || 
 
Chorus: 
 E-|----2-------|-------|--------|---3----| 
 B-|-0-3-3-0-0-3|-------|--0-3-0-|--3-3---|(Play verse) 
 G-|------------|-------|-0------|-3------|(to complete) 
 D-|------------|-------|--------|--------| (chorus,) 
 A-|2-------2---|2S4-2-0|3-------|0----0--|(then go back) 
 E-|------------|-------|3------3|--------| (to verse) 
 
( ) = Chorus 
 
Chances are we're gonna leave now 
Sorry for the victim now 
(Though my days are filled with sorrow 
I see years of bright tommorrow) 
 
Chances, chances are some might not hold out 
Chances are, hang on right now 
(Though-oh-oh-oh my-my days are filled with sorrow 
I see years of bright tommorrow) 
 
Chances, chances are some might not hold out 
Chances are, hang on right now 
Chances are, oh chances, you're my chances 
Chances are, hang on right now 
 
Chances are, hang on right now 
 
Deal with loneliness, I'll take some tear drops 
Chances are we'll have to win 
Chances are, hang on right now 
Chances are, chances are...

Видео для песни "Chances Are":

 

Описание аккордов к песне (Генератор аккордов)

 

Еще подборы:

 



Для связи с администратором: killger@gmail.com
©2013 - 2018 портал PesniGitara. Все тексты песен принадлежат их авторам. Копирование некоторых материалов портала только с разрешения администратора!