× Закрыть

One Love (Marley Bob)

		
3xChorus
||-----------|---------|-----------|-----------|--------------|
||-------3--|---------|--------3--|--------3--|--------0-----|
||-1--1-----|--1--1---|--3--5-----|--3--5-----|--1--3-----3--|
||-----------|---------|-----------|-----------|--------------|
 
Interlude
-----|--------|-----||-----------------|--------|--------|----|
---1-|--3-----|----||--1--1--1--1--1--|---(1)--|--3-----|----|
-1---|-----3--|-1--||-----------------|-1------|-----3--|--1-|
-----|--------|-----||-----------------|--------|--------|----|

2xVerse
||---------------|--------|--------------------|-----
||--------0--1--|--3-----|--1--1--1--1--1-----|-----
||--1--1--------|-----1--|--------------------|--1--
||---------------|--------|--------------------|-----

2xChorus
|------------|--------|-----------|------||------------|-----|
|------0--1--|--3-----|-----1--3--|-----||--------3--|-----|
|1--1--------|-----1--|--1--------|--1--||--1--1-----|-1--1|
|------------|--------|-----------|------||------------|-----|

----------|-----------|--------------|--------|--------|-----||
-------3--|--------3--|---------0----|-----1--|--3-----|----||
-3--5-----|--3--5-----|--1--3-----3--|--1-----|-----3--|--1-||
----------|-----------|--------------|--------|--------|-----||

Interlude
||-----------------|----------|--------|-----||
||--1--1--1--1--1--|-----(1)--|--3-----|-----||
||-----------------|--1-------|-----3--|--1--||
||-----------------|----------|--------|-----||

2xVerse
||---------------|--------|-----------------|-----
||--------0--1--|--3-----|--1--1--1--1--1--|-----
||--1--1--------|-----1--|-----------------|--1--
||---------------|--------|-----------------|-----

2xChorus
|------------|--------|-----------|------||------------
|------0--1--|--3-----|-----1--3--|-----||--------3--
|1--1--------|-----1--|--1--------|--1--||--1--1-----
|------------|--------|-----------|------||------------


|-----|----------|-----------|--------------|--------|--------|
|-----|--------3-|--------3--|--------0-----|-----1--|--3-----|
|-1-1-|--3--5----|--3--5-----|--1--3-----3--|--1-----|-----3--|
|-----|----------|-----------|--------------|--------|--------|

3x Interlude fade out
|-----||------------------|----------|--------|------||
|----||--1--1--1--1--1--|-----(1)--|--3-----|-----||
|-1--||-----------------|--1-------|-----3--|--1--||
|-----||------------------|----------|--------|------||

Видео для песни "One Love":

 

Описание аккордов к песне (Генератор аккордов)

 

Еще подборы:

 



Для связи с администратором: killger@gmail.com
©2013 - 2018 портал PesniGitara. Все тексты песен принадлежат их авторам. Копирование некоторых материалов портала только с разрешения администратора!