× Закрыть

Waiting In Vain (Marley Bob)

		
Intro: Cm G#maj 
 
Cm G#maj 
I don't want no wait in vain for your love, 
Cm G#maj 
I don't want no wait in vain for your love, 
 
Verse 1: 
Cm G#maj 
From the very first time I blessed my eyes on you girl, 
Cm G#maj 
My heart said follow through 
Cm G#maj 
But I know now that I'm way down on your line 
Cm G#maj 
But the waiting feels fine 
Cm G#maj 
So don't treat me like a puppet on a string 
Cm G#maj 
Cause I know how to do my thing 
Cm G#maj 
Don't talk to me, as if you think I'm dumb 
Cm G#maj 
I want to know when you're gonna come, see 
 
Chorus: 
Amaj7 Dmaj7 
I don't want no wait in vain for your love 
I don't want no wait in vain for your love 
I don't want no wait in vain for your love, 
 
Bridge: 
Db A Cm Bb 
Cause if summer is here, I'm still waiting there 
Db Cm A Bb 
Winter is here, and I'm still waiting there... 
 
Solo: 
Amaj7 Dmaj7 
 e:---------------------------| 
 B:-----------------10--12~~--| 
 G:---------------------------| 
 D:------------9s11-----------| 
 A:-------9s12----------------| 
 E:--9s12---------------------| 
 
Amaj7 Dmaj7 
 e:------8h9h11--9p8--------------------------------| 
 B:---------------------9b11--9b11--11p9h11p9~~~~~--| 
 G:-------------------------------------------------| 
 D:-------------------------------------------------| 
 A:-------------------------------------------------| 
 E:-------------------------------------------------| 
 
Amaj7 Dmaj7 
 e:--11b--11b-11-11--8h11p8-------------------| 
 B:-------------------------11b-11b-11b-11p9--| 
 G:-------------------------------------------| 
 D:-------------------------------------------| 
 A:-------------------------------------------| 
 E:-------------------------------------------| 
 
Amaj7 play fast! 
 e:---------------------------------------| 
 B:-------------------------------9-9h11--| 
 G:-----------------------8--8h10---------| 
 D:---------------8--8h10-----------------| 
 A:-------8--8h10-------------------------| 
 E:--8h10---------------------------------| 
 
Dmaj7 
 e:-8--8h11--13---16b-16b-16b-11--20------------| 
 B:---------------------------------------------| 
 G:---------------------------------------------| 
 D:---------------------------------------------| 
 A:---------------------------------------------| 
 E:---------------------------------------------| 
Like I said 
 
Verse 3: 
Amaj7 Dmaj7 
It's been three years since I'm knocking on your door 
And I still can knock some more 
Ooo girl, Ooo girl, is it feasible, I wanna know now 
for I to knock some more, you see 
 
Amaj7 Dmaj7 
In life I know, there's lots of grief 
But your love is my relief 
Tears in my eyes burn, Tears in my eyes burn 
Amaj7 Dmaj7 
While I'm waiting, while I'm waiting for my turn 
 
Chorus: 
It's your love that I'm waiting on 
It's my love that your running from 
 
Same as before repeat and fade...

Видео для песни "Waiting In Vain":

 

Описание аккордов к песне (Генератор аккордов)

  • Cm ↓
    Аккорд Cm
  • Db ↓
    Аккорд Db

 

Еще подборы:

 



Для связи с администратором: killger@gmail.com
©2013 - 2018 портал PesniGitara. Все тексты песен принадлежат их авторам. Копирование некоторых материалов портала только с разрешения администратора!