× Закрыть

Изольда (Мельница)

		
Играется с каподастром на 3 ладу. Ниже  подробней.

Вступление: 
         Cm         Gm            Bb                  F
E|--------0------------------------------------------0-----0----|
B|-----------3p1-0----------3-----3------1p0-------3----3-------|
G|------2-------------0-------0--------0-----2---2--------------|
D|----2-----------------2-------2----0---------0----------------|
A|--0---------------------2-------------------------------------|
E|-----------------0--------------3-----------------------------|

                                               тут очень быстрый форшлаг
                                                             
E|------------0----------------------------------------3--2h3p2-0------|
B|--------0h1---3p1-0--------3-----3------1p0--------3------------3----|
G|------2--------------0-------0--------0-----2----2-------------------|
D|----2------------------2-------2----0----------0---------------------|
A|--0----------------------2-------------------------------------------|
E|------------------0--------------3-----------------------------------|

E|------------0----------------------------------------0-----0---------|
B|--------0h1---3p1-0--------3-----3------1p0--------3----3------------|
G|------2--------------0-------0--------0-----2----2-------------------|
D|----2------------------2-------2----0----------0---------------------|
A|--0----------------------2-------------------------------------------|
E|------------------0--------------3-----------------------------------|

     G#               F
E|----------------------------------|
B|--------0h1p0----3--3--1p0--------|
G|------2-------2--2---------2------|
D|----3------------0----------------|
A|----------------------------------|
E|--1-------------------------------|

Первый куплет:
E|--------0----------------------------------------0-----0----|
B|-----------3p1-0----0----3-3--3--3--1p0-3------3----0-------|
G|------2-------------0----0-0--0--0------2----2--------------|
D|----2---------------2----2-2--0--0------0--0----------------|
A|--0-----------------2--2-2-2-----2--------------------------|
E|-----------------0------------3-----------------------------|
                      *      *     *      ^
        Берегами          дальних           морей,

E|------------0-------------------------------------3--2h3p2-0----|
B|--------0h1---3p1-0--0----3-3--3--3--1p0-3------3------------3--|
G|------2--------------0----0-0--0--0------2----2-----------------|
D|----2----------------2----2-2--0--0------0--0-------------------|
A|--0------------------2--2-2-2-----2-----------------------------|
E|------------------0------------3--------------------------------|
                       *      *     *      ^
       Бесконечными дождями в алых     шелках-парусах,

E|------------0-------------------------------------0-----0-------|
B|--------0h1---3p1-0--0----3-3--3--3--1p0-3------3----0----------|
G|------2--------------0----0-0--0--0------2----2-----------------|
D|----2----------------2----2-2--0--0------0--0-------------------|
A|--0------------------2--2-2-2-----2-----------------------------|
E|------------------0------------3--------------------------------|
                       *      *     *      ^
       Беспощадными врагами      в жарких боях   за   любовь,

E|----------------------------------|
B|--------0h1p0----3--3--1p0--------|
G|------2-------2--2---------2------|
D|----3------------0----------------|
A|----------------------------------|
E|--1-------------------------------|
     За е любовь, мой серебряный.

Проигрыш:      
E|------------------------------0------------------------------------|
B|--------1-------0---------1h3---1-------1---0-----------1---0------|
G|------2-------0---------0-------------0-------0-------2-------2----|
D|----2-------0-------0h2-------------0-----0-----0---3-----3-----3--|
A|--0-------2-------3------------------------------------------------|
E|----------------------------------3---------------1----------------|
Чтобы не пропускать мелодию флейты, промычите е 

E|------------------------------0-------------------------------------------------------------------|
B|--------1---0-------------1h3---1-------1---0-----------1---0------------1---0--------------------|
G|------2-------2---------0-------------0-------0-------2-------2-------2--------2------------------|
D|----0-----0-----0---0h2-------------0-----0-----0---3-----3-----3---0------0-----0-----------2----|
A|------------------3----------------------------------------------------------------2--------------|
E|--2-------------------------------3---------------1---------------2----------------3--------------|

Второй куплет:
E|--------0----------------------------------------0-----0----|
B|-----------3p1-0----0----3-3--3--3--1p0-3------3----0-------|
G|------2-------------0----0-0--0--0------2----2--------------|
D|----2---------------2----2-2--0--0------0--0----------------|
A|--0-----------------2--2-2-2-----2--------------------------|
E|-----------------0------------3-----------------------------|
                      *      *     *      ^
         За    морями         ты сыщешь е,

E|------------0-------------------------------------3--2h3p2-0----|
B|--------0h1---3p1-0--0----3-3--3--3--1p0-3------3------------3--|
G|------2--------------0----0-0--0--0------2----2-----------------|
D|----2----------------2----2-2--0--0------0--0-------------------|
A|--0------------------2--2-2-2-----2-----------------------------|
E|------------------0------------3--------------------------------|
                       *      *     *      ^
            За холодными волнами небо      темнеет от стрел

E|------------0-------------------------------------0-----0-------|
B|--------0h1---3p1-0--0----3-3--3--3--1p0-3------3----0----------|
G|------2--------------0----0-0--0--0------2----2-----------------|
D|----2----------------2----2-2--0--0------0--0-------------------|
A|--0------------------2--2-2-2-----2-----------------------------|
E|------------------0------------3--------------------------------|
                       *      *     *      ^
       За холодными глазами    отдашь ли ты вс, что имел,

E|----------------------------------|
B|--------0h1p0----3--3--1p0--------|
G|------2-------2--2---------2------|
D|----3------------0----------------|
A|----------------------------------|
E|--1-------------------------------|
       За е любовь, мой серебряный?

Проигрыш:                                   те же быстрые форшлаги
                                                        
E|--------7-----5-------0------0-------0-----0-------------------|
B|------5----8--------1------1-------3----3----------------------|
G|----5-------------2------2-------2-------------------2p0-----0-|
D|-------------------------------0---------------0h2p0-----0h2---|
A|--0------------------------------------------3-----------------|
E|----------------1----------------------------------------------|

E|--------7-----5--------9--8--7-------0-----0---0----------------|
B|------5----8--------0--------------3----3------1---3p1h3-----1--|
G|----5-------------0--------------2-------------0---------0h2----|
D|-------------------------------0-----------------2--------------|
A|--0------------------------------------------3------------------|
E|----------------1-----------------------------------------------|

E|--------7-----5-------0------0-------0-----0-------------0------|
B|------5----8--------1------1-------3----3------------1h3---1----|
G|----5-------------2------2-------2-----------------0------------|
D|-------------------------------0---------------0h2--------------|
A|--0------------------------------------------3------------------|
E|----------------1-----------------------------------------------|

E|----------------------------------------------------------------|
B|--3-----1---0-----------1---0-----------1---0-------------------|
G|------0-------0-------2-------2-------2-------2------------0----|
D|----0-----0-----0---3-----3-----3---0-----0-----0-0-------------|
A|--------------------------------------------------2-------------|
E|--3---------------1---------------2---------------3-------------|

За цунами лишь флейта пот
Золотыми голосами в бездонной тьме, в тишине,
Золотыми волосами не скроешься даже на дне
От е любви, мой серебряный.

(В качестве проигрыша играется мелодия куплета и первого проигрыша)

За цунами лишь флейта пот
Золотыми голосами в бездонной тьме, в тишине,
Золотыми волосами не скроешься даже на дне

E|----------------------------------|
B|--------0h1p0----3--3--1p0--------|
G|------2-------2--2---------2------|  }х3
D|----3------------0----------------|   
A|----------------------------------|
E|--1-------------------------------|
     От е любви, мой серебряный.

E|---0--------|
B|---1--------|
G|---2--------|
D|---2--------|
A|---0--------|
E|------------|

Видео для песни "Изольда":

 

Описание аккордов к песне (Генератор аккордов)

  • Cm ↓
    Аккорд Cm
  • Gm ↓
    Аккорд Gm
  • F ↓
    Аккорд F
  • G# ↓
    Аккорд G#

 

Еще подборы:

 



Для связи с администратором: killger@gmail.com
©2013 - 2018 портал PesniGitara. Все тексты песен принадлежат их авторам. Копирование некоторых материалов портала только с разрешения администратора!