Lenin Has Risen (Noize MC)

		
Аккорды: F#m  A  Bm  F#m (   )
         D ()
         A  Em ()
              
Intro: (2 раза)
E--------------------------------------------------------------------------------
B------------------0----------0------------------------0---------1---0----------
G-------------------------2-----------------------2---------2---------------------
D------------4-------------------------------2----------------------------------
A-------4-------------------------------2-----------------------------------------
E--2--------------------------------0---------------------------------------------

E--------------------------------------------------------------------------------
B--0----------------------------3-------2----------------------------------------
G-------2---------------------------------------2--------------------------------
D------------0-----------------------------------------------------------------
A-----------------0-----------------0-------0-------------------------------------
E------------------------1--0-----------------------------------------------------

E--------------------------------------------------------------------------------
B------------------0----------0------------------------0---------1---0----------
G-------------------------2-----------------------2---------2---------------------
D------------4-------------------------------2----------------------------------
A-------4-------------------------------2-----------------------------------------
E--2--------------------------------0---------------------------------------------

E--------------------------------------------------------------------------------
B--0----------------------------2-------3------5----------------------------------
G-------2-----------------------------------------------------------------------
D------------0-----------------------------------------------------------------
A-----------------0-----------------0-------0-------------------------------------
E------------------------1--0-----------------------------------------------------

Припев: (2 раза)
Haven't you heard? 
Lenin has risen!
Why, what for and how?
Nobody knows the way, 
The aim and the reason
But he is alive right now. 

1 Куплет:
F#m
Unbelievable! It's a biblical miracle!
A
His halo is shining like a star
Bm
On the Kremlin tower's pinnacle
F#m
Everybody can see this light from far.
F#m
Don't you know, 
His death was clinical,
A
It was just a little breath holding trick.
Bm
His hearing's so sensitive 
                    F#m
To all things inimical

Think twice before you speak.
F#m
Don't you wanna say 
You don't like he's back?
A
Don't you wanna pray? 
Louder! Why such slack?
Bm
Don't you stray from under the holy sway?
F#m
Don't behave like 
You're made of finer clay!
F#m
Everybody's equal. Equal to zero.
A
Weigh every word, every syllable.
Bm
Stay flat to be 
Inserted into the xerox...
F#m
It's a miracle! Unbelievable!

Припев:(2 раза)
F#m
Haven't you heard? 
A            Bm
Lenin has risen!
F#m
Why, what for and how?
F#m              A
Nobody knows the way, 
                   Bm
The aim and the reason
          D   A        Em
But he is alive right now. 

2 Куплет:
The New Testament is so oldschool.
Download the update. 
Whatcha waiting for?
Enjoy testing it. 
(1 часть играем )
Don't be so boastful -
You can't create, 
Better wash the floor.
There are so many footprints, bloodstains
And pieces of the 
Smart alecs' trampled specs.
Mop it down. Mop up the renegades.
It's cool to break the traitors' necks.
All these sinners forgot the Holy Fear.
So, let'em all know the end is near.
And here is something that should be clear:
He is not back. He was always here.
Everybody's equal. Equal to zero.
Weigh every syllable, every word.
There will be no sequel for anti-heroes.
Haven't you heard?!

Припев: 
E--------------------------------------------------------------------------------
B------------------0----------0------------------------0---------1---0----------
G-------------------------2-----------------------2---------2---------------------
D------------4-------------------------------2----------------------------------
A-------4-------------------------------2-----------------------------------------
E--2--------------------------------0---------------------------------------------

E--------------------------------------------------------------------------------
B--0----------------------------3-------2----------------------------------------
G-------2---------------------------------------2--------------------------------
D------------0-----------------------------------------------------------------
A-----------------0-----------------0-------0-------------------------------------
E------------------------1--0-----------------------------------------------------

E--------------------------------------------------------------------------------
B------------------0----------0------------------------0---------1---0----------
G-------------------------2-----------------------2---------2---------------------
D------------4-------------------------------2----------------------------------
A-------4-------------------------------2-----------------------------------------
E--2--------------------------------0---------------------------------------------

E--------------------------------------------------------------------------------
B--0----------------------------2-------3------5----------------------------------
G-------2-----------------------------------------------------------------------
D------------0-----------------------------------------------------------------
A-----------------0-----------------0-------0-------------------------------------
E------------------------1--0-----------------------------------------------------

Lenin has risen!
Why, what for and how?
Nobody knows the way, 
The aim and the reason
But he is alive right now. 

Haven't you heard? 
Lenin has risen!
Why, what for and how?
Nobody knows the way, 
The aim and the reason
But he is alive right now. 

Проигрыш: F#m A Bm F#m (4 раза)

Видео для песни "Lenin Has Risen":

 

Описание аккордов к песне (Генератор аккордов)

  • F#m ↓
    Аккорд F#m
  • Bm ↓
    Аккорд Bm
  • D ↓
    Аккорд D
  • Em ↓
    Аккорд Em

 

Еще подборы:

 

Отзывы и комментарии:


Для связи с администратором: killger@gmail.com
©2013 - 2017 портал PesniGitara. Все тексты песен принадлежат их авторам. Копирование некоторых материалов портала только с разрешения администратора!