× Закрыть

Belle (Петкун В)

		
		Belle
 		Петкун в., голубев а., макарский а.

		[--------1--------1--------|--------1--------1--------|
		--------3--------3--------|--------3--------3--------|
		-----2-----2--------2-----|-----2-----2--------2-----|
		--0-----------0-----------|--0-----------0-----------|
		-----------------------0--|-----------------------0--|
		--------------------------|--------------------------|

		--------1--------1--------|-----------------0--------|
		--------3--------3--------|--------3--------2--------|
		-----2-----2--------2-----|--------3-----------2-----|
		--0-----------0-----------|-----5-----5--------------|
		-----------------------0--|--------------0--------0--|
		--------------------------|--3-----------------------|

		--------1--------1--------|-----------------0--------|
		--------3--------3--------|--------3--------1--------|
		-----2-----2--------2-----|--------3-----------0-----|
		--0-----------0-----------|-----5-----5--------------|
		-----------------------0--|--------------3--------0--|
		--------------------------|--3-----------------------|

		--------1--------1--------|-----------------0--------|
		--------1--------1--------|--------3--------2--------|
		-----2-----2--------2-----|--------3-----------2-----|
		--------------3-----------|-----5-----5--------------|
		--------------------------|--------------0--------0--|
		--1--------------------1--|--3-----------------------|

		--------1--------1--------|--------------------0-----|
		--------3--------3--------|--------3-----------2-----|
		-----2-----2--------2-----|--------3--------0-----2--|
		--0-----------0-----------|-----5-----5--------------|
		-----------------------0--|--6-----------0--------0--|
		--------------------------|--------------------------|

		-----2--2--2-----2--2--2--|-----3--3--3-----2--2--2--|
		-----3--3--3-----3--3--3--|-----5--5--5-----2--2--2--|
		-----4--4--4-----4--4--4--|-----4--4--4-----3--3--3--|
		--------------------------|--2-----------4-----------|
		--2-----------2-----------|--------------------------|
		--------------------------|--------------------------|

		-----2--2--2-----2--2--2--|-----3--3--3-----0--0--0--|-----2--2-----|
		-----3--3--3-----3--3--3--|-----5--5--5-----2--2--2--|-----3--3--3--|
		-----4--4--4-----4--4--4--|-----4--4--4-----2--2--2--|-----2--2--2--|
		--------------------------|--2-----------------------|--0-----------|
		--2-----------2-----------|--------------0-----------|--------------|
		--------------------------|--------------------------|--------------|

		-----2--2--2-----2--2--2--|-----3--3--3-----2--2--2--|
		-----3--3--3-----3--3--3--|-----5--5--5-----2--2--2--|
		-----4--4--4-----4--4--4--|-----4--4--4-----3--3--3--|
		--------------------------|--2-----------4-----------|
		--2-----------2-----------|--------------------------|
		--------------------------|--------------------------|

		-----2--2--2-----2--2--2--|-----3--3--3-----0--0--0--|
		-----3--3--3-----3--3--3--|-----5--5--5-----2--2--2--|
		-----4--4--4-----4--4--4--|-----4--4--4-----2--2--2--|
		--------------------------|--2-----------------------|
		--2-----------2-----------|--------------0-----------|
		--------------------------|--------------------------|

		-----2--2--2-----2--2--2--|-----3--3--3-----2--2--2--|
		-----3--3--3-----3--3--3--|-----5--5--5-----2--2--2--|
		-----2--2--2-----2--2--2--|-----4--4--4-----3--3--3--|
		--0-----------0-----------|--2-----------4-----------|
		--------------------------|--------------------------|
		--------------------------|--------------------------|

		-----2--2--2-----2--2--2--|-----3--3--3-----2--2--0--|
		-----3--3--3-----3--3--3--|-----5--5--5-----2--2--2--|
		-----4--4--4-----4--4--4--|-----4--4--4-----3--3--3--|
		--------------------------|--2-----------4-----------|
		--2-----------2-----------|--------------------------|
		--------------------------|--------------------------|

		--------2--------2--------|--------------------------|
		--------3--------3--------|-----0--0--0-----2--2--2--|
		-----4-----4--------4-----|-----0--0--0-----2--2--2--|
		--------------------------|--2-----------------------|
		--2-----------2--------2--|--------------0-----------|
		--------------------------|--------------------------|

		--------1--------1--------|-----------------0--0-----|------------------
		--------3--------3--------|-----3--3--3-----1--1--1--|------------------
		-----2-----2--------2-----|-----3--3--3-----3--3--3--|------------------
		--0-----------0-----------|--------------------------|------------------
		-----------------------0--|--------------3-----------|------------------
		--------------------------|--3-----------------------|------------------]

Видео для песни "Belle":

 

Описание аккордов к песне (Генератор аккордов)

 

Еще подборы:

 



Для связи с администратором: killger@gmail.com
©2013 - 2019 портал PesniGitara. Все тексты песен принадлежат их авторам. Копирование некоторых материалов портала только с разрешения администратора!