× Закрыть

Smile (Sixx:A.M.)

		
Intro: C
E|-------0---------------0h1h0-------|
B|---------1-------------------1-----|
G|-----0-----0--------0----------0---|
D|---2--------------2----------------|
A|-3--------------3------------------|
E|-----------------------------------| x2

     C                          Fm/Ab       
As the light, washes over the morning rise,
Am                    Am/G           F
You're still asleep, and that's all right,
     C                          Fm/Ab 
I can be still, cos you look so sweet,
Am           Am/G         F
And beautiful, next to me.

Dm
And all my life,
             A#
I've been waiting for someone like you,
            C
To make me smile,
             Fm/Ab 
You make me feel alive,
             Am          
And you're giving me everything,
Am/G                   F
I've ever wanted in life,
             C
You make me smile,
        Fm/Ab 
And I forget to breathe,
          Am
What's an angel like you,
       Am/G                 F
Ever doing with a devil like me.
           A#        F
You make me smile,
        C
Wooahh smile,
     A#         F
You make me smile,
   C
Smile.

Intro x2
           C              Fm/Ab 
Still in bed, sun is beating down,
         Am           Am/G     F
In a hotel room, on the edge of town,
           C                   Fm/Ab 
Wake up baby, it's three hundred miles to drive,
       Am                                Am/G           F
And the truck-stop preacher, well he says God is on our side.

Dm
And all my life,
             A#
I've been waiting for someone like you,
            C
To make me smile,
             Fm/Ab 
You make me feel alive,
             Am          
And you're giving me everything,
           Am/G      F
I've ever wanted in life,
             C
You make me smile,
        Fm/Ab 
And I forget to breathe,
          Am
What's an angel like you,
                  Am/G        F
Ever doing with a devil like me.
           A#        F
You make me smile,
        C
Wooahh smile,
     A#         F
You make me smile,
   C
Yeaaheh.
 
Solo: Am C Em F }x2 

E|------------------------------------------------------|
B|------------------------------------------------------|
G|------5-7b--------5-7/12-------------9h10-9h10-9h10---|     
D|---/7----------/7-------10-9-10*------------------10--|
A|------------------------------------------------------|
E|------------------------------------------------------|
(Obs: * = Harmonic)

E|-------------------5-8-5--------------------10b-10r---|
B|-----------------5-------8-5--------------8-----------|
G|-9-------/7-5-7b-------------7b--5-7b--/9-------------|
D|---9-10-----------------------------------------------|
A|------------------------------------------------------|
E|------------------------------------------------------|

E|------------------------12-15-------15----12----------|
B|-8-8-------------13---15------13-13----15----15-13----|
G|-------------/12--------------------------------------|
D|------------------------------------------------------|
A|------------------------------------------------------|
E|------------------------------------------------------|

E|------------------------------------------------------|
B|--15b-15r-13-13---------------------------------------|
G|------------------------------------------------------|
D|------------------------------------------------------|
A|------------------------------------------------------|
E|------------------------------------------------------|

Dm
And all my life,
             A#
I've been waiting for someone like you,
            C
To make me smile,
             Fm/Ab 
You make me feel alive,
             Am          
And you're giving me everything,
           Am/G      F
I've ever wanted in life,
             C
You make me smile,
        Fm/Ab 
And I forget to breathe,
          Am
What's an angel like you,
                  Am/G        F
Ever doing with a devil like me.

           A#    F
You make me smile,
            C
You make me smile,
    A#       F
You make me smile,
            C
You make me smile,
    A#       F
You make me smile

Видео для песни "Smile":

 

Описание аккордов к песне (Генератор аккордов)

  • C ↓
    Аккорд C
  • Am ↓
    Аккорд Am
  • Am/G ↓
    Аккорд Am/G
  • F ↓
    Аккорд F
  • Dm ↓
    Аккорд Dm
  • A# ↓
    Аккорд A#
  • Em ↓
    Аккорд Em

 

Еще подборы:

 



Для связи с администратором: killger@gmail.com
©2013 - 2018 портал PesniGitara. Все тексты песен принадлежат их авторам. Копирование некоторых материалов портала только с разрешения администратора!