× Закрыть

Can`t Stand You (Slayer)

		
Intro:
Riff a
---------------------------------------
---------------------------------------
---------------------------------------/ 4
---------------------------------------/
---------------------------------------
-6-6-6-6-7-7-7-7-10-10-10-10-9-9-9-9-9-
Can't stand -
The way you look
The way you talk
The way you act
Can't stand you

Riff b
----------------------------------------------
----------------------------------------------
---------------------/3----------------------
---------------------/-----------------------
----------------------------------------------
-9-9-9-9-10-10-10-10--13-13-13-13-12-12-12-12-

Do I think -
You're a dick - Yeah
You're a fuck - Yeah
We'll fight - Yeah
Do I think you'll win - No
w/Riff b
Do I think you're stupid - Yeah
Do I think you're lame - Yeah
Am I stressing
You're the one to blame

(Repeat Intro.)

Тут 4-x тактовый бас кусок, в точности, повторяющий тему.
Последняя доля, последнего такта - слайд вниз на 6-й струне;
Theme (half time) (p.m. - по вкусу)
-----------------------------------------------
-----------------------------------------------
-----------------------------------------------
-7--7--7--10-10-10-10-7--7--7--7--10-10-10-9-7-
-7--7--7--10-10-10-10-7--7--7--7--10-10-10-9-7-
-5--5--5--8--8--8--8--5--5--5--5--8--8--8--7-5-

-----------------------------------------------
-----------------------------------------------
-----------------------------------------------
-7--7--7--10-10-10-10-7--7--7--7--8------------
-7--7--7--10-10-10-10-7--7--7--7--8------~~~~--
-5--5--5--8--8--8--8--5--5--5--5--6------~~~~--
I open my mouth at the wrong time
Always ranking on somebody
I'm drunk all the time
Throwing beer bottles and spitting in your face
Checking through the purse
Of the slut in our place

w/hard p.m.
-----------------------------------------------
-----------------------------------------------
-----------------------------------------------
-4--4--4--4--4--4--4--4--5--5--5--6--6--6--6---
-4--4--4--4--4--4--4--4--5--5--5--6--6--6--6---
-2--2--2--2--2--2--2--2--3--3--3--4--4--4--4---

-----------------------------------------------
-----------------------------------------------
-----------------------------------------------
-4--4--4--4--4--4--4--4--5--5--5--6--6--6--6---
-4--4--4--4--4--4--4--4--5--5--5--6--6--6--6---
-2--2--2--2--2--2--2--2--3--3--3--4--4--4--4---
She'll never notice if her money is gone
-----------------------------------------------
-----------------------------------------------
-----------------------------------------------
-3--3--3--3--3--3--3--3--4--4--4--5--5--5--5---
-3--3--3--3--3--3--3--3--4--4--4--5--5--5--5---
-1--1--1--1--1--1--1--1--2--2--2--3--3--3--3---

-----------------------------------------------
-----------------------------------------------
-----------------------------------------------
-7--7--7--10-10-10-10-7--7--7--7--10-10-10-9-7-
-7--7--7--10-10-10-10-7--7--7--7--10-10-10-9-7-
-5--5--5--8--8--8--8--5--5--5--5--8--8--8--7-5-
Piss in her jacket
And just send her along

 (Repeat Intro.)

Видео для песни "Can`t Stand You":

 

Описание аккордов к песне (Генератор аккордов)

  • Am ↓
    Аккорд Am

 

Еще подборы:

 



Для связи с администратором: killger@gmail.com
©2013 - 2019 портал PesniGitara. Все тексты песен принадлежат их авторам. Копирование некоторых материалов портала только с разрешения администратора!