× Закрыть

Killing Fields (Slayer)

		
 drums
------------------------------------------------------------------
------------------------------------------------------------------
------------------------------------------------------------------
------------------------------------------------------------------
---------------------2----------------------(2)------------(2)----
-----------------0---0----------------------(0)------------(0)----

      pick scrape
---------------------------------------------------------------
---------------------------------------------------------------
---------------------------------------------------------------
---------------------------------------------------------------
----X----------X--------X--------X-----------------------------
----X----------X--------X--------X-----------------------------

Rhythm fig 1
     P.M....   .......     .........
-------------------------------------------------------------------
-------------------------------------------------------------------
-------------------------------------------------------------------
-------------------------------------------------------------------
-0--2--------2--3---------2---2----------2--5----------------------
-0--0-0-0-0-00--1-0-0-0-0-0---4-0-0-0-0--0--3----------------------

Rhythm fig 1 (cont)
     P.M....   .......     .........
-------------------------------------------------------------------
-------------------------------------------------------------------
-------------------------------------------------------------------
-------------------------------------------------------------------
-0--2--------2--3---------2---2----------2--5---6------------------
-0--0-0-0-0-00--1-0-0-0-0-0---4-0-0-0-0--0--3---4------------------

----------------------------------------------------------------
----------------------------------------------------------------
---------------------------------------------------2------------
----------------------------------2/__--------------------------
--2-------------------------------------------------------------
--0-------------------------------------------------------------

              pull up/down  pull up on bar
P.M....................     P.M...................
-------------------------------------------------------------------
-------------------------------------------------------------------
-------------------------------------------------------------------
-------------------------------------------------------------------
------------------------4--3-------------------------4--3----------
-300200200100600300200--2--1--300200200100600300200--2--1----------

heavy p.m..........................
-------------------------------------------------------------------
-------------------------------------------------------------------
-------------------------------------------------------------------
-------------------------------------------------------------------
-2-2-2-2--2-3-3-3-2-4-4-4-2-5-5-5----------------------------------
-0-0-0-0--0-1-1-1-0-2-2-2-0-3-3-3----------------------------------

heavy P.M..........................
-------------------------------------------------------------------
-------------------------------------------------------------------
-------------------------------------------------------------------
-------------------------------------------------------------------
-2-2-2-2--2-3-3-3-2-4-4-4-2-5---6----------------------------------
-0-0-0-0--0-1-1-1-0-2-2-2-0-3---4----------------------------------
              (play 6 times)

P.M.......................................
-----------------------------------------
-----------------------------------------
-----------------------------------------
-----------------------------------------
-----------------------------------------
-0-0-0---0----0---0----0-0-0---0---0-0-0-

-------------------------------------------------------------------
-------------------------------------------------------------------
-------------------------------------------------------------------
------------------------------------------------------------3------
--------3-----------------6----------------3----------------1------
-0-0-0--1--0-0-0---0-0-0--4--0-0-0--0-0-0--1--0-0-0---0-0-0--------

-------------------------------------------------------------------
-------------------------------------------------------------------
-------------------------------------------------------------------
-------------------------------------------------------------------
---------------3--------------6--------------3---------------6--4--
-0-0-0--0-0-0--1-0-0-0--0-0-0-4-0-0-0--0-0-0-1-0-0-0--0-0-0--6--4--

play w/ lyrics
Chorus     w/ "А sociopath with empty eyes"etc
-------------------------------------------------------------------
-------------------------------------------------------------------
-------------------------------------------------------------------
-------------------------------------------------------------------
--2------1--2--5----4-------------2-----1--2--5---4-----7---------
--2------1--2--5----4-------------2-----1--2--5---4-----7---------

2nd Chorus
-------------------------------------------------------------------
-------------------------------------------------------------------
-------------------------------------------------------------------
-------------------------------------------------------------------
-3---2-3--6---5--------3----2--3--6----5------8-------------------
-3---2-3--6---5--------3----2--3--6----5------8-------------------
                Gradually accelerate picking
P.M...............................................................
-------------------------------------------------------------------
-------------------------------------------------------------------
-------------------------------------------------------------------
-------------------------------------------------------------------
-------------------------------------------------------------------
-2-2-2--2-2-2--2-2-2--2-2-2--2-2-2--2-2-2--2-2-2--2-2-2--2-2-2-----

     w/"А choice is made of free will" etc
P.M................................................................
-------------------------------------------------------------------
-------------------------------------------------------------------
-------------------------------------------------------------------
-------------------------------------------------------------------
-------------------------------------------------------------------
-4-4-4--4-4-4-4--4-4-4--4-4-4-4--3-3-3--3-3-3-3-3-3---3-3-3-3------
riff b
P.M...............................................................
-------------------------------------------------------------------
-------------------------------------------------------------------
-------------------------------------------------------------------
-------------------------------------------------------------------
-------------------------------------------------------------------
-0-0-0--0-0-0-0--0-0-0--0-0-0-0--0-0-0--0-0-0-0-0-0--0-0--0-0------

       w/"Decisions to lose control"etc
P.M...............................................................
-------------------------------------------------------------------
-------------------------------------------------------------------
-------------------------------------------------------------------
-------------------------------------------------------------------
-------------------------------------------------------------------
-4--4--3----3-3-3-3-3-3-3--3-3-3-3-3-3---2-2-2-2-5-5-5--5-5-5-5----

riff b etc

solo rhythm
P.M............................................................
-------------------------------------------------------------------
-------------------------------------------------------------------
-------------------------------------------------------------------
-------------------------------------------------------------------
-------------------------------------------------------------------
-1-1-1-1-1-1-1-1-1-1-1--0-0--1-4-4--4-4-44-3-3-3-3-3-3-3-3-3-3-3-3-

P.M..............................................................
-------------------------------------------------------------------
-------------------------------------------------------------------
-------------------------------------------------------------------
-------------------------------------------------------------------
-------------------------------------------------------------------
-1-1-1-1-1-1-1-1-1-1-1--0-0-1-1-1-4-4-4-4-4--3-3-3-3-6-6-6-6-6-6---

Rhythm fig 1 w/ " А choice is made" again

Lyrics:
You know the feeling when adrenaline takes control
Cant beat the rush that leaves a suicidal hold
Instinct spares no one destroying the human heart
The taste of blood can rip your soul apart
Devils that drive us do not discriminate
А state of mind that becomes the ultimate end
Action re-action bloodline is not immune
To the depth of human nature inside of me and you

А sociopath with empty eyes and no soul
Paranoid psychotic heart of stone my blood runs cold

Evils of passion can drive reasons to extremes
Love, hate and murder, Temporary insanity
On the edge of a demented personality
Emotional pain is a deadly reality

А Sociopath with empty eyes and no soul
Paranoid psychotic heart of stone my blood runs cold!!!

А choice is made of free will just like the choice to kill
Decision to lose control my self destructive rationale
А choice is made, made of free will
Just like the choice, the choice to kill
In the speed of the moment, life stands still
Now you're standing in my killing field

a choice is made of free will just like the choice to kill
In the speed of the moment, life stands still
Now you're standing in my killing field!

Видео для песни "Killing Fields":

 

Описание аккордов к песне (Генератор аккордов)

 

Еще подборы:

 



Для связи с администратором: killger@gmail.com
©2013 - 2019 портал PesniGitara. Все тексты песен принадлежат их авторам. Копирование некоторых материалов портала только с разрешения администратора!