× Закрыть

South Of Heaven (Slayer)

		
South Of Heaven
by Slayer

--------------------------------------------------------------------------------
Tune down 1/2 step to Eb Ab Db Gb Bb Eb

INTRO:
RIFF 1: (*4 times)
Gtr.1Eb||-------------------------------------------------|-------------------------------------------------||
     Bb||-------------------------------------------------|-------------------------------------- trill ----||
     Gb||-------------9~~~~----8--------7-----7--6~~~~~~--|-------------9~~~~----8--------7-----6h7p6h7p6~~-||
     Db||-------9--10-------10-------9-----8--------------|-------9--10-------10-------9-----8--------------||
     Ab||----7--------------------------------------------|----7--------------------------------------------||
     Eb||-0-----------------------------------------------|-0-----------------------------------------------||
       ||                                                 |                                                 ||
Gtr.2Eb||-------------------------------------------------|-------------------------------------------------||
     Bb||-------------------------------------------------|-------------------------------------- trill ----||
     Gb||-------------4~~~~----3--------2-----2--1~~~~~~--|-------------4~~~~----3--------2-----1h2p1h2p1~~-||
     Db||-------4--5--------5--------4-----3--------------|-------4--5--------5--------4-----3--------------||
     Ab||----7--------------------------------------------|----7--------------------------------------------||
     Eb||-0-----------------------------------------------|-0-----------------------------------------------||
Starting from 3rd repeat, add guitar 3, which plays natural harmonics and articulates them with tremolo bar.
RIFF 2: (*2 times)
Gtr.1Eb||-------------------------------------------------|-------------------------------------------------||
     Bb||-------------------------------------------------|-------------------------------------------------||
     Gb||-------------------------------------------------|-------------------------------------------------||
     Db||-2-----------------------------------------------|-2-----------------------------------------------||
     Ab||-2-----------------------------------------------|-2-----------------------------------------------||
     Eb||-0-----------------------------------------------|-0-----------------------------------------------||
       ||                                                 |                                                 ||
Gtr.2Eb||-------------------------------------------------|-------------------------------------------------||
     Bb||-------------------------------------------------|-------------------------------------- trill ----||
     Gb||-------------4--------3--------2-----2--1~~~~~~--|-------------4--------3--------2-----1h2p1h2p1~~-||
     Db||-------2--5--------5--------4-----3--------------|-------2--5--------5--------4-----3--------------||
     Ab||----2--------------------------------------------|----2--------------------------------------------||
     Eb||-0-----------------------------------------------|-0-----------------------------------------------||
VERSE 1:
      An unforeseen future nestled somewhere in time.      Unsuspecting victims,no warnings,no signs.
Gtr.1Eb|--------------------------------------------------|-------------------------------------------------|
     Bb|--------------------------------------------------|-------------------------------------------------|
     Gb|--------------------------------------------------|-------------------------------------------------|
     Db|--------------------------------------------------|-------------------------------------------------|
     Ab|--------------------------------------------------|-------------------------------------------------|
     Eb|--0--0--0--0--0--0--0--0--0--0--0--0--0--0--0--0--|-0--0--0--0--0--0--0--0--0--0--0--0--0--0--0--0--|
       |  .  .  .  .  .  .  .  .  .  .  .  .  .  .  .  .  | .  .  .  .  .  .  .  .  .  .  .  .  .  .  .  .  |
Gtr.2Eb|--------------------------------------------------|-------------------------------------------------|
     Bb|--------------------------------------------------|-------------------------------------- trill ----|
     Gb|--------------4--------3--------2-----2--1~~~~~~--|-------------4--------3--------2-----1h2p1h2p1~~-|
     Db|--------2--5--------5--------4-----3--------------|-------2--5--------5--------4-----3--------------|
     Ab|-----2--------------------------------------------|----2--------------------------------------------|
     Eb|--0-----------------------------------------------|-0-----------------------------------------------|
 
              Judgment day,the second coming arrives.         Before you see the light,  you must die!
Gtr.1Eb|--------------------------------------------------|-------------------------------------------------|
     Bb|--------------------------------------------------|-------------------------------------------------|
     Gb|--------------------------------------------------|-------------------------------------------------|
     Db|--------------------------------------------------|-------------------------------------------------|
     Ab|--------------------------------------------------|---------------------------------------------sl--|
     Eb|--0--0--0--0--0--0--0--0--0--0--0--0--0--0--0--0--|-0--0--0--0--0--0--0--0--0--0--0--0--0--0--12---|
       |  .  .  .  .  .  .  .  .  .  .  .  .  .  .  .  .  | .  .  .  .  .  .  .  .  .  .  .  .  .  .        |
Gtr.2Eb|--------------------------------------------------|-------------------------------------------------|
     Bb|--------------------------------------------------|-------------------------------------- trill ----|
     Gb|--------------4--------3--------2-----2--1~~~~~~--|-------------4--------3--------2-----1h2p1h2p1~~-|
     Db|--------2--5--------5--------4-----3--------------|-------2--5--------5--------4-----3--------------|
     Ab|-----2--------------------------------------------|----2--------------------------------------------|
     Eb|--0-----------------------------------------------|-0-----------------------------------------------|
RIFF 2A (play 2 times):
Gtr.1Eb||-------------------------------------------------|-------------------------------------------------||
     Bb||-------------------------------------------------|-------------------------------------- trill ----||
     Gb||-------------9~~~~----8--------7-----7--6~~~~~~--|-------------9~~~~----8--------7-----6h7p6h7p6~~-||
     Db||-------9--10-------10-------9-----8--------------|-------9--10-------10-------9-----8--------------||
     Ab||----7--------------------------------------------|----7--------------------------------------------||
     Eb||-0-----------------------------------------------|-0-----------------------------------------------||
       || .  .                                            | .  .                                            ||
Gtr.2Eb||-------------------------------------------------|-------------------------------------------------||
     Bb||-------------------------------------------------|-------------------------------------- trill ----||
     Gb||-------------4--------3--------2-----2--1~~~~~~--|-------------4--------3--------2-----1h2p1h2p1~~-||
     Db||-------2--5--------5--------4-----3--------------|-------2--5--------5--------4-----3--------------||

     Ab||----2--------------------------------------------|----2--------------------------------------------||
     Eb||-0-----------------------------------------------|-0-----------------------------------------------||
RIFF 3:
Gtr.1Eb|--------------------------------------------------|-------------------------------------------------|
     Bb|--------------------------------------------------|-------------------------------------------------|
     Gb|--------------------------------------------------|---------------------------------------10-10----|
     Db|--2-----------------------------------------------|-2-------------------------------------10-10-sl-|
     Ab|--2-----------------------------------------------|-2--------------------------------------8--8----|
     Eb|--0-----------------------------------------1--1--|-0-----------------------------------------------|
       |  >                                         .  .  | >                                      >  >     |
Gtr.2Eb|--------------------------------------------------|-------------------------------------------------|
     Bb|--------------------------------------------------|-------------------------------------------------|
     Gb|--------------------------------------------------|-------------------------------------------------|
     Db|--------------------------------------------------|-------------------------------------------------|
     Ab|-----------10-------8-----7--------10-------------|----------10-------8-----7--------10-------------|
     Eb|--0--0--0--0--0--0--0--0--0--0--0--0--0--0--1--1--|-0--0--0--0--0--0--0--0--0--0--0--0--0--0--1--1--|
          .  .  .  >  .  .  >  .  >  .  .  >  .  .  .  .    .  .  .  >  .  .  >  .  >  .  .  >  .  .  .  .
 
Gtr.1Eb|--------------------------------------------------|-------------------------------------------------|
     Bb|--------------------------------------------------|-------------------------------------------------|
     Gb|--------------------------------------------10----|-------------------------------------------------|
     Db|--2-----------------------------------------10----|-------------------------------------------------|
     Ab|--2-----------------------------------------8-----|-7--7--7--7--7--7--7--7--7--7--7--7--7--7--7--7--|
     Eb|--0-----------------------------------------------|-0--0--0--0--0--0--0--0--0--0--0--0--0--0--0--0--|
       |  >                                         >     | .  .  .  .  .  .  .  .  .  .  .  .  .  .  .     |
Gtr.2Eb|--------------------------------------------------|-------------------------------------------------|
     Bb|--------------------------------------------------|-------------------------------------------------|
     Gb|--------------------------------------------------|-------------------------------------------------|
     Db|--------------------------------------------------|-------------------------------------------------|
     Ab|-----------10-------8-----7--------10-------------|----------10-------8-----7--------10-------------|
     Eb|--0--0--0--0--0--0--0--0--0--0--0--0--0--0--1--1--|-0--0--0--0--0--0--0--0--0--0--0--0--0--0--1--1--|
          .  .  .  >  .  .  >  .  >  .  .  >  .  .  .  .    .  .  .  >  .  .  >  .  >  .  .  >  .  .  .  .
Increase tempo: 138
VERSE 2:
    Forgotten     children con  -  fo - orm   a  new  fa - ith,       a -   
Gtr.1Eb|---------------------------------|---------------------------------|
Gtr.2Hb|---------------------------------|---------------------------------|
     Gb|---------------------------------|---------------------------------|
     Db|-------------5-----------3-------|-------------5-----------3-------|
     Ab|-------------5-----------3-------|-------------5-----------3-------|
     Eb|-0-0-0---0---3---0---0---1---0---|-0-0-0---0---3---0-0-0---1-------|
        . . .   .   >   .   .   >   .     . . .   .   >   . . .   >
       vidity   and  lust  con  -  trolled   by     ha - te.          The 
Gtr.1Eb|---------------------------------|---------------------------------|
Gtr.2Hb|---------------------------------|---------------------------------|
     Gb|---------------------------------|---------------------------------|
     Db|-------------5-----------3-------|-------------5-----------3-------|
     Ab|-------------5-----------3-------|-------------5-----------3-------|
     Eb|-0-0-0---0---3---0---0---1---0---|-0-0-0---0---3---0-0-0---1-------|
        . . .   .   >   .   .   >   .     . . .   .   >   . . .   >
       never ending search for yo - ur  shattered    sanity.     
Gtr.1Eb|---------------------------------|---------------------------------|
Gtr.2Hb|---------------------------------|---------------------------------|
     Gb|---------------------------------|---------------------------------|
     Db|-------------5-----------3-------|-------------5-----------3-------|
     Ab|-------------5-----------3-------|-------------5-----------3-------|
     Eb|-0-0-0---0---3---0---0---1---0---|-0-0-0---0---3---0-0-0---1-------|
        . . .   .   >   .   .   >   .     . . .   .   >   . . .   >
       Souls of Dam  -  nation in their own  re   -   a - lity.
Gtr.1Eb|---------------------------------|---------------------------------|
Gtr.2Hb|---------------------------------|---------------------------------|
     Gb|---------------------------------|---------------------------------|
     Db|-------------5-----------3-------|-------------5-----------3-------|
     Ab|-------------5-----------3-------|-------------5-----------3-------|
     Eb|-0-0-0---0---3---0---0---1---0---|-0-0-0---0---3---0-0-0---1-------|
        . . .   .   >   .   .   >   .     . . .   .   >   . . .   >
PRE-CHORUS: (Gtr.3 adds tremolo bar effects)
      Cha - os        ram - pant, an   age  of  dis - trust.
Gtr.1Eb|---------------------------------|---------------------------------|
Gtr.2Hb|---------------------------------|---------------------------------|
     Gb|---------------------------------|---------------------------------|
     Db|---------------------------------|-------------------------5-------|
     Ab|-4---------------4---------------|-4-------4-------4-------5-------|
     Eb|-2---2---2-2-2---2---2---6--0---|-2-2-2---2-2-2---2-2-2-2-3-------|
        >   .   . . .   >   .  	

Видео для песни "South Of Heaven":

 

Описание аккордов к песне (Генератор аккордов)

  • Eb ↓
    Аккорд Eb
  • Ab ↓
    Аккорд Ab
  • Db ↓
    Аккорд Db
  • Gb ↓
    Аккорд Gb

 

Еще подборы:

 



Для связи с администратором: killger@gmail.com
©2013 - 2018 портал PesniGitara. Все тексты песен принадлежат их авторам. Копирование некоторых материалов портала только с разрешения администратора!