× Закрыть

Sic (Slipknot)

		
Tablature Notation
------------------
.  - palm mute                  /  - slide up to
  - slide down to              ~  - vibrato
h  - hammer on                  b  - bend
p  - pull off                   Suffixes for bend
ph - pinch harmonic             f - full bend    h - half bend
*  - see comment                r - release      t - tap bend
X  - percussion mute            ~ - vibrato bend
@  - slight palm mute           () - ghost note, sustained note

Drop D tuning

(SIC)

Riff 1                                                         
|-----------------------------------------------------------------|
|-----------------------------------------------------------------|
|-----------------------------------------------------------------|
|-----------------------------------------------------------------|
|---0-------0-------0---------3-----0-------0-------0---------3---|
|-0-0---0-0-0---0-0-0---0-0-0-3---0-0---0-0-0---0-0-0---0-0-0-3---|
  .     . .     . .     . . .     .     . .     . .     . . .

Riff 2                                                         
|-----------------------------------------------------------------|
|-----------------------------------------------------------------|
|-----------------------------------------------------------------|
|-----------------------------------------------------------------|
|-3-2-----3-2-----3-2-----3-2-----3-2-----3-2-----3-2-----3-2-----|
|-3-2-0-0-3-2-0-0-3-2-0-0-3-2-0-0-3-2-0-0-3-2-0-0-3-2-0-0-3-2-0-0-|
      . .     . .     . .     . .     . .     . .     . .     . .

Riff 3
|------------------------------|
|------------------------------|
|------------------------------|
|------------------------------|
|----------------------4-3-0-6-|
|-1-0-0-1-0--1-0-1-0-1-4-3-0-6-|

|---------------------------------------------------------------|
|---------------------------------------------------------------|
|---------------------------------------------------------------|
|---------------------------------------------------------------|
|-1-0-0--1-0--1-0--1-0-1-4-3-0-6-1-0-0--1-0--1-0--1-0-1-4-3-0-6-|
|-1-0-0--1-0--1-0--1-0-1-4-3-0-6-1-0-0--1-0--1-0--1-0-1-4-3-0-6-|
  . . .  . .  . .  . . . . . . . . . .  . .  . .  . . . . . . .  


Riff 4               
|-------------------------|
|-------------------------|
|-------------------------|
|-------------------------| 
|-------------------------|
|-5555-2222-4444-1111-----|


Riff 3

Riff 4



Riff 5
|-----------------------------------------------|
|-----------------------------------------------|
|-7----------8--------8--7---------8--------8-|
|-X----------X--------X---X---------X--------X--|
|-5----------6--------6--5---------6--------6-|
|-----6-0-0-----7~-0----------6-0-0-----7~-0----|

Riff 6
|-------------------------------------------|
|-------------------------------------------|
|-------------------------------------------|
|-------------------------------------------|
|-0--0---0---0---0-0-1-0--0---0---0---0-0-1-|
|-0--0---0---0---0-0-1-0--0---0---0---0-0-1-|
  .  .   .   .   .     .  .   .   .   .


Riff 7                                             
|-----------------------------------------------------|
|-----------------------------------------------------|
|-----------------------------------------------------|
|-------------3-------------------------3-------------|
|-0---3---2---1-----3-2-1---0---3---2---1-----3-2-1---|
|-0---3---2-------0-3-2-1---0---3---2-------0-3-2-1---|
                                       

Riff 6


Riff 8                                                     
|-------------------------------------------------------------|
|-------------------------------------------------------------|
|-------------------------------------------------------------|
|-------------------------------------------------------------|
|-5-2-0-2-0--5-2-0-2-0--5-2-0-2-5-2-0-2-0--5-2-0-2-0--5-2-0-2-|
|-5-2-0-2-0--5-2-0-2-0--5-2-0-2-5-2-0-2-0--5-2-0-2-0--5-2-0-2-|


Outro(Tremblo)                       End
|---------------------------------|---|
|---------------------------------|---|
|---------------------------------|---|
|---------------------------------|---|
|---------------------------------|---|
|-0---3--2---1--4-0---3--2---1--4-|-0-|

Видео для песни "Sic":

 

Описание аккордов к песне (Генератор аккордов)

  • D ↓
    Аккорд D

 

Еще подборы:

 



Для связи с администратором: killger@gmail.com
©2013 - 2018 портал PesniGitara. Все тексты песен принадлежат их авторам. Копирование некоторых материалов портала только с разрешения администратора!