× Закрыть

Spit It Out (Slipknot)

		
Прежде чем играть Slipknot настройте ваш инструмент таким образом: 1-я струна: C#, 2-ая: 
G#, 3-я: E, 4-я: B, 5-я: F#, 6-я: B. Для тех, кто не понимает о чем идет речь, состройте 
четвертую и шестую струны (просто спустите шестую).


C#-------------------|
G#-------------------|
E -------------------|
B -------------------|
F#||--1--0-----1--0-----1--0--|--1--0-----1--0-----1--0--|
B ||--1--0/-5--1--0/-5--1--0--|--1--0/-5--1--0/-5--1--0--|


                                                      
-----------------------------------------|
-----------------------------------------|
-----------------------------------------|
-----------------------------------------|
--1--0-----1--0-----1--0--|--1--0-----1--0-----1--0--|
--1--0/-5--1--0/-5--1--0--|--1--0/-5--1--0/-5--1--0--|


                                                                                
-------------------------------------------------------|
-------------------------------------------------------|
----------------------------------------|--------5/-------5/-------|
----------------------------------------|--------3/-------3/-------|
--1--0-----1--0-----1--0--|--1--0-----1--0-----1----|--1--0-----1--0-----1--0--|
--1--0/-5--1--0/-5--1--0--|--1--0/-5--1--0/-5--1----|--1--0-----1--0-----1--0--|


                                                      
-----------------------------------------|
-----------------------------------------|
--------5/-------5/-------|--------5/-------5/-------|
--------3/-------3/-------|--------3/-------3/-------|
--1--0-----1--0-----1--0--|--1--0-----1--0-----1--0--|
--1--0-----1--0-----1--0--|--1--0-----1--0-----1--0--|


                                                      
-----------------------------------------|
-----------------------------------------|
--------5/-------5/-------|--------5/-------5/-------|
--------3/-------3/-------|--------3/-------3/-------|
--1--0-----1--0-----1--0--|--1--0-----1--0-----1--0--|
--1--0-----1--0-----1--0--|--1--0-----1--0-----1--0--|


                                                      
-----------------------------------------|
-----------------------------------------|
--------5/-------5/-------|--------5/-------5/-------|
--------3/-------3/-------|--------3/-------3/-------|
--1--0-----1--0-----1--0--|--1--0-----1--0-----1--0--|
--1--0-----1--0-----1--0--|--1--0-----1--0-----1--0--|


                                                      
-----------------------------------------|
-----------------------------------------|
--------5/-------5/-------|--------5/-------5/-------|
--------3/-------3/-------|--------3/-------3/-------|
--1--0-----1--0-----1--0--|--1--0-----1--0-----1--0--|
--1--0-----1--0-----1--0--|--1--0-----1--0-----1--0--|


                                                      
-----------------------------------------|
-----------------------------------------|
--------5/-------5/-------|--------5/-------5/-------|
--------3/-------3/-------|--------3/-------3/-------|
--1--0-----1--0-----1--0--|--1--0-----1--0-----1--0--|
--1--0-----1--0-----1--0--|--1--0-----1--0-----1--0--|


                                                           
----------------------------------|
----------------------------------|
--------5/-------5/-------||*-----------------------------|
--------3/-------3/-------||*-----------------------------|
--1--0-----1--0-----1--0--||---3-3-3--3-2--2-3--3-1--1-1--|
--1--0-----1--0-----1--0--||---3-3-3--3-2--2-3--3-1--1-1--|


                                                            
-----------------------------------------------|
-----------------------------------------------|
-----------------------------------------------|
-----------------------------------------------|
--3-3-3--3-2--2-3--3-1--1-1--|--3-3-3--3-2--2-3--3-1--1-1--|
--3-3-3--3-2--2-3--3-1--1-1--|--3-3-3--3-2--2-3--3-1--1-1--|


                                                                              
-----------------------------------------|
-----------------------------------------|
-----------------------------*-----------|
-----------------------------*||-------6-------7~-----|-------6-------7~-----|
--3-3-3--3-2--2-3--3-1--1-1---||--5-------5-----------|--5-------5-----------|
--3-3-3--3-2--2-3--3-1--1-1--------------|


                                                                     
--------------------------------------------|
--------------------------------------------|
--------------------------------------------|
-------6-------7~-----|-------6-------7~-----|-------6-------7~-----|
--5-------5-----------|--5-------5-----------|--5-------5-----------|
--------------------------------------------|


                                                                     
--------------------------------------------|
--------------------------------------------|
--------------------------------------------|
-------6-------7~-----|-------6-------7~-----|-------6-------7~-----|
--5-------5-----------|--5-------5-----------|--5-------5-----------|
--------------------------------------------|


                                                                         
------------------------------------------------|
------------------------------------------------|
---------------------------------|--------5/-------5/-------|
-------6-------7~-----|-------6-------7~-----|--------3/-------3/-------|
--5-------5-----------|--5-------5-----------|--1--0-----1--0-----1--0--|
---------------------------------|--1--0-----1--0-----1--0--|


                                                      
-----------------------------------------|
-----------------------------------------|
--------5/-------5/-------|--------5/-------5/-------|
--------3/-------3/-------|--------3/-------3/-------|
--1--0-----1--0-----1--0--|--1--0-----1--0-----1--0--|
--1--0-----1--0-----1--0--|--1--0-----1--0-----1--0--|


                                                      
-----------------------------------------|
-----------------------------------------|
--------5/-------5/-------|--------5/-------5/-------|
--------3/-------3/-------|--------3/-------3/-------|
--1--0-----1--0-----1--0--|--1--0-----1--0-----1--0--|
--1--0-----1--0-----1--0--|--1--0-----1--0-----1--0--|


                                                      
-----------------------------------------|
-----------------------------------------|
--------5/-------5/-------|--------5/-------5/-------|
--------3/-------3/-------|--------3/-------3/-------|
--1--0-----1--0-----1--0--|--1--0-----1--0-----1--0--|
--1--0-----1--0-----1--0--|--1--0-----1--0-----1--0--|


                                                           
----------------------------------|
----------------------------------|
--------5/-------5/-------||*-----------------------------|
--------3/-------3/-------||*-----------------------------|
--1--0-----1--0-----1--0--||---3-3-3--3-2--2-3--3-1--1-1--|
--1--0-----1--0-----1--0--||---3-3-3--3-2--2-3--3-1--1-1--|


                                                            
-----------------------------------------------|
-----------------------------------------------|
-----------------------------------------------|
-----------------------------------------------|
--3-3-3--3-2--2-3--3-1--1-1--|--3-3-3--3-2--2-3--3-1--1-1--|
--3-3-3--3-2--2-3--3-1--1-1--|--3-3-3--3-2--2-3--3-1--1-1--|


                                                                      
---------------------------------|
---------------------------------|
-----------------------------*---|
-----------------------------*---|
--3-3-3--3-2--2-3--3-1--1-1------|
--3-3-3--3-2--2-3--3-1--1-1------|


                                                                            
---------------------------------------|
---------------------------------------|
---------------------------------------|
---------------------------------------|
---------------------------------------|
---------------------------------------|


                                                                    
-------------------------------------------|
-------------------------------------------|
-------------------------|--7-7-7--7-8--8-7--7-8--8-7--|
-------------------------|--x-x-x--x-x--x-x--x-x--x-x--|
-------------------------|--5-5-5--5-6--6-5--5-6--6-5--|
-------------------------------------------|


                                                            
-----------------------------------------------|
-----------------------------------------------|
--7-7-7--7-8--8-7--7-8--8-7--|--7-7-7--7-8--8-7--7-8--8-7--|
--x-x-x--x-x--x-x--x-x--x-x--|--x-x-x--x-x--x-x--x-x--x-x--|
--5-5-5--5-6--6-5--5-6--6-5--|--5-5-5--5-6--6-5--5-6--6-5--|
-----------------------------------------------|


                                                                       
----------------------------------------------------------|
----------------------------------------------------------|
--7-7-7--7-8--8-7--7-8--8-7--|--14-14-14--14-15--15-14--14-15--15-14--|
--x-x-x--x-x--x-x--x-x--x-x--|--x--x--x---x--x---x--x---x--x---x--x---|
--5-5-5--5-6--6-5--5-6--6-5--|--12-12-12--12-13--13-12--12-13--13-12--|
----------------------------------------------------------|


                                         
----------------------------------------|
----------------------------------------|
--14-14-14--14-15--15-14--14-15--15-14--|
--x--x--x---x--x---x--x---x--x---x--x---|
--12-12-12--12-13--13-12--12-13--13-12--|
----------------------------------------|


                                         
----------------------------------------|
----------------------------------------|
--19-19-19--19-20--20-19--19-20--20-19--|
--x--x--x---x--x---x--x---x--x---x--x---|
--17-17-17--17-18--18-17--17-18--18-17--|
----------------------------------------|


                                                   
--------------------------------------------------|
--------------------------------------------------|
--21-21-21-21-21-21-21-21-21-21-21-21-21-21-21-21-|
--x--x--x--x--x--x--x--x--x--x--x--x--x--x--x--x--|
--19-19-19-19-19-19-19-19-19-19-19-19-19-19-19-19-|
--------------------------------------------------|


                                                              
-------------------------------------|
-------------------------------------|
|*-----------------------------------------------|
|*-----------------------------------------------|
|---0-0-0--0-1--1-0--0-1--1-0--|--0-0-0--0-1--1-0--0-1--1-0--|
|---0-0-0--0-1--1-0--0-1--1-0--|--0-0-0--0-1--1-0--0-1--1-0--|


                                                              
------------------------------------------------||
------------------------------------------------||
-----------------------------------------------*||
-----------------------------------------------*||
--0-0-0--0-1--1-0--0-1--1-0--|--0-0-0--0-1--1-0--0-1--1-0---||
--0-0-0--0-1--1-0--0-1--1-0--|--0-0-0--0-1--1-0--0-1--1-0---||


                                                                               
------------------------------------------------------|
------------------------------------------------------|
*-----------------------------------------------------|
*-----------------------------------------------------|
---3-3-3---2---3---1---1--|--3-3-3---2---3---1---1--|--3-3-3---2---3---1---1--|
---3-3-3---2---3---1---1--|--3-3-3---2---3---1---1--|--3-3-3---2---3---1---1--|


                          13x                                       
--------------------------|
--------------------------|
-------------------------*|
-------------------------*|
--3-3-3---2---3---1---1---|
--3-3-3---2---3---1---1---|

Since you never gave a damn in the first place
Maybe it´s time you had the tables turned
Cuz in the interest of all involved I got the problem solved
And the verdict is guilty...

...MAN NEARLY KILLED ME
Steppin´ where you fear to tread
Stop, drop and roll - you were DEAD FROM THE GIT-GO!
BIG MOUTH FUCKER - STUPID COCKSUCKER
Are you scared of me now? Then you´re dumber than I thought
Always is, never was
Foundation made of piss and vinegar
Step to me, I´ll smear ya -Think I fear ya? BULLSHIT!
Just another dumb punk chompin´ at this tit
Is there any way to break through the noise?
Was it something that I said that got you bent?
It´s gotta be that way if you want it
Sanity, Literal Profanity HIT ME!

SPIT - IT OUT
All you wanna do is drag me down
All I wanna do is stamp you out

Maybe it´s the way you spread a lotta rumour fodder
Keepin´ all your little spies and leavin´ when you realise
Step up, fairy
I guess it´s time to bury your ass with the chrome
Straight to the dome
You heard me right, bitch, I didn´t stutter
If you know what´s good - sit, shut up and beg, brother
Backstab - Don´t you know who you´re dissin´?
Side swipe - we know THE ASS THAT YOU´RE KISSIN´!
BIGIDY-BIGGIDY BITCH BOY, HALFWAY HAUSER
Can´t hear shit cuz I keep gettin´ louder
Step up, and you get a face full o´ tactic
Lippin´ off hard, goin´ home in a basket
You got no pull, no power, no NUTHIN´
Now you start shit? Well, ain´t that somethin´?
Payoffs don´t protect, and you can´t hide if you want
But I´LL FIND YOU - Comin´ up behind you!

SPIT - IT OUT
All you wanna do is drag me down
All I wanna do is stamp you out

´Bout time I set this record straight
All the needlenose punchin´ is makin´ me irate
Sick o´ my bitchin´ fallin´ on deaf ears
Where YOU gonna be in the next five years?
The crew and all the fools, and all the politix
G	

Видео для песни "Spit It Out":

 

Описание аккордов к песне (Генератор аккордов)

  • E ↓
    Аккорд E
  • B ↓
    Аккорд B
  • G ↓
    Аккорд G

 

Еще подборы:

 



Для связи с администратором: killger@gmail.com
©2013 - 2018 портал PesniGitara. Все тексты песен принадлежат их авторам. Копирование некоторых материалов портала только с разрешения администратора!