× Закрыть

Lazy Sunday (Small Faces)

		
-----------------------------------------------------------------
  THE SMALL FACES - LAZY SUNDAY (MARRIOTT/LANE)
-----------------------------------------------------------------
  Tabbed by:PJVillanueva



Intro      D     G     E     A
           D     G     E


A              E
Wouldn't it be nice
   G              D           A 
To get on with me neighbours
         A            E 
But they make it very clear
        G               D         A
They've got no room for ravers


D
They stop me from groovin',

They bang on me wall
E
They doing me crust in

It's no good at all


A    D             A
Lazy Sunday afternoon
         C             F  
I got no mind to worry
           G              A     E     G     D     A
I close my eyes and drift away


A           E   G            D        A
Here we all are sittin' in a rainbow
     A                E     
Gore blimey hello Mrs Jones
      G             D     A          
How's old Bert's lumbago (mustn't grumble)


D
I'll sing you a song,

With no words and no tune
E
To sing in your party

While you suss-out the moon



A    D             A
Lazy Sunday afternoon,
         C             F
I got no mind to worry
           G              Dbm   G    D    F6   E
Close my eyes and drift away



A              E
Root-de-doo-de-doo
G               D        A
Root-de-doot-de die day
A               E
Root-de doot de dum
G              D        A
Root-de-doo-de-doo dee


D
There's no one to hear me,

There's nothing to say
E
And no one can stop me

From feelin' this way



A    D             A 
Lazy Sunday afternoon,
         C              F
I got no mind to worry
           G              Dbm    G    D   F6   E
Close my eyes and drift away



A    D             A
Lazy Sunday afternoon,
         C              F
I got no mind to worry
           G             Dbm
Close my eyes and drift a
           F#m             D
Close my eyes and drift away
           E               Asus4 A Asus2 A .........     
Close my eyes and drift away





Intro


  D      D                    E      E               
     Dsus4      G                 Esus4      A
e|5---5- ------ 7----- ------|7---7- ------ -9---- -9----|
B|7---8--7------8------------|9--10--9------10-----10----|
G|7---7------7--7------------|9---9------9---9------9----|
D|---------------------------|---------------------------|
A|---------------------------|---------------------------|
E|---------------------------|---------------------------|

  D      D
      Dsus4     G             E  
e|5---5- ------ 7----- ------|7-7-7- 7-7-7- 7----- ------|
B|7---8--7------8------------|9-9-9--9-9-9--9------------|
G|7---7------7--7------------|9-9-9--9-9-9--9------------|
D|---------------------------|---------------------------|
A|---------------------------|---------------------------|
E|---------------------------|---------------------------|



Verse


   A     A                    G      G
      Asus4     E                 Gsus4     D          A
e|-9--10P9----- 7----- ------|7---8- 7----- 5----- ----5-|
B|10--10--------9------------|8---8------8--7------7---5-|
G|-9---9--------9------------|7---7---------7----------6-|
D|---------------------------|-------------------------7-|
A|---------------------------|-------------------------7-|
E|---------------------------|-------------------------5-|
  Wouldn't it be nice     to get on with me neighbours


  
e|----5- 5---5- 5---5- 5---5-|----5- 5---5- 5----- ------|
B|----5--5---5--5---5--5---5-|----5--5---5--5------------|
G|----6--6---6--6---6--6---6-|----6--6---6--6------------|
D|----7--7---7--7---7--7---7-|----7--7---7--7------------|
A|----7--7---7--7---7--7---7-|----7--7---7--7------------|
E|----5--5---5--5---5--5---5-|----5--5---5--5------------|
                                                  But they

   A     A                    G      G
      Asus4     E                 Gsus4     D          A
e|-9--10P9----- 7----- ------|7---8- 7----- 5----- ----5-|
B|10--10--------9------------|8---8------8--7------7---5-|
G|-9---9--------9------------|7---7---------7----------6-|
D|---------------------------|-------------------------7-|
A|---------------------------|-------------------------7-|
E|---------------------------|-------------------------5-|
  make it very clear    they've got no room for ravers


  
e|----5- 5---5- 5---5- 5---5-|----5- 5---5- 5---5- 5-5-5-|
B|----5--5---5--5---5--5---5-|----5--5---5--5---5--5-5-5-|
G|----6--6---6--6---6--6---6-|----6--6---6--6---6--6-6-6-|
D|----7--7---7--7---7--7---7-|----7--7---7--7---7--7-7-7-|
A|----7--7---7--7---7--7---7-|----7--7---7--7---7--7-7-7-|
E|----5--5---5--5---5--5---5-|----5--5---5--5---5--5-5-5-|





      Dsus2     Dsus2                Dsus2  
         D   D      D             D      D      
  D5       Dsus4           D  Dsus4
e|----0- 2-3-2- 0---2- ----2-|3---2- 0---2- ----2- ----2-|
B|3---3--3-3-3--3---3------3-|3---3--3---3------3------3-|
G|2---2--2-2-2--2---2------2-|2---2--2---2------2------2-|
D|0--------------------------|0-----------------0------0-|
A|---------------------------|---------------------------|
E|---------------------------|---------------------------|
  They stop me from grrovin' they bang on me wall
                Esus2                Esus2
           Esus4              Esus4
  E7     E   E  Bm    E           E  Bm  E
e|4----- 4-5-4- ----4- ----4-|5---4- ----4- ----4- 4---4-|
B|5---7--5-5-5--7---5------5-|5---5--7---5------5--5---5-|
G|4------4-4-4--4---4------4-|4---4--4---4------4--4---4-|
D|0-------------0------------|0------0-------------------|
A|---------------------------|---------------------------|
E|---------------------------|---------------------------|
   they doin' me crust in,  it's no good at all






  A                           D
e|0----- 0---0- 0---0- 0---0-|2----- 2---2- 2---2- 2---2-|
B|2------2---2--2---2--2---2-|3------3---3--3---3--3---3-|
G|2------2---2--2---2--2---2-|2------2---2--2---2--2---2-|
D|2------2---2--2---2--2---2-|0------0---0--0---0--0---0-|
A|0------0---0--0---0--0---0-|---------------------------|
E|---------------------------|---------------------------|
         La............zy     sun     day    af... ternoon

  A                           C
e|0----- 0---0- 0----- 0---0-|0----- 0---0- 0---0- ----0-|
B|2------2---2--2------2---2-|1------1---1--1---1------1-|
G|2------2---2--2------2---2-|0------0---0--0---0------0-|
D|2------2---2--2------2---2-|2------2---2--2---2------2-|
A|0------0---0--0------0---0-|3------3---3--3---3------3-|
E|---------------------------|3------3---3--3---3------3-|
         I've   got    no     mind   to     worry

  F                           G
e|1----- 1---1- 1----- 1---1-|3----- 3---3- 3----- 3-----|
B|1------1---1--1------1---1-|3------3---3--3------3-----|
G|2------2---2--2------2---2-|4------4---4--4------4-----|
D|3------3---3--3------3---3-|5------5---5--5------5-----|
A|3------3---3--3------3---3-|5------5---5--5------5-----|
E|1------1---1--1------1---1-|3------3---3--3------3-----|
         Close         my    eyes    and    drift  away





   A     A                    G      G
      Asus4     E               Gsus4       D          A
e|-9--10P9----- 7----- ------|7---8- 7----- 5----- ----5-|
B|10--10--------9------------|8---8------8--7------7---5-|
G|-9---9--------9------------|7---7---------7----------6-|
D|---------------------------|-------------------------7-|
A|---------------------------|-------------------------7-|
E|---------------------------|-------------------------5-|



  
e|----5- 5---5- 5---5- 5---5-|----5- 5---5- 5----- ------|
B|----5--5---5--5---5--5---5-|----5--5---5--5------------|
G|----6--6---6--6---6--6---6-|----6--6---6--6------------|
D|----7--7---7--7---7--7---7-|----7--7---7--7------------|
A|----7--7---7--7---7--7---7-|----7--7---7--7------------|
E|----5--5---5--5---5--5---5-|----5--5---5--5------------|

e|--------- --------- --------- --------|--------- --------- --
B|-10-10-10--10-10-10--10-10-10-10-10-10|-------10-7---------5-
G|9--9--9---9--9--9---9--9--9---9--9--9-|-7-8-9----7---------6-
D|--------------------------------------|-----------------7- --
A|--------------------------------------|----------------------
E|--------------------------------------|----------------------



                                                         

Verse


   A     A                    G      G
      Asus4     E               Gsus4       D          A
e|-9--10P9----- 7----- ------|7---8- 7----- 5----- ----5-|
B|10--10--------9------------|8---8------8--7------7---5-|
G|-9---9--------9------------|7---7---------7----------6-|
D|---------------------------|-------------------------7-|
A|---------------------------|-------------------------7-|
E|---------------------------|-------------------------5-|
  Here we all   are           sittin' in a  rain...bow


  
e|----5- 5---5- 5---5- 5---5-|----5- 5---5- 5----- ------|
B|----5--5---5--5---5--5---5-|----5--5---5--5------------|
G|----6--6---6--6---6--6---6-|----6--6---6--6------------|
D|----7--7---7--7---7--7---7-|----7--7---7--7------------|
A|----7--7---7--7---7--7---7-|----7--7---7--7------------|
E|----5--5---5--5---5--5---5-|----5--5---5--5------------|
                                                      Gore 

   A     A                    G       G
      Asus4     E               Gsus4       D          A
e|-9--10P9----- 7----- ------|7---8- 7----- 5----- ----5-|
B|10--10--------9------------|8---8------8--7------7---5-|
G|-9---9--------9------------|7---7---------7----------6-|
D|---------------------------|-------------------------7-|
A|---------------------------|-------------------------7-|
E|---------------------------|-------------------------5-|
  blimey Hello Mrs jones  How's old Bert's lumbago (mustn't 



 
e|----5- 5---5- 5---5- 5---5-|----5- 5---5- 5-5-5- 5-5-5-|
B|----5--5---5--5---5--5---5-|----5--5---5--5-5-5--5-5-5-|
G|----6--6---6--6---6--6---6-|----6--6---6--6-6-6--6-6-6-|
D|----7--7---7--7---7--7---7-|----7--7---7--7-7-7--7-7-7-|
A|----7--7---7--7---7--7---7-|----7--7---7--7-7-7--7-7-7-|
E|----5--5---5--5---5--5---5-|----5--5---5--5-5-5--5-5-5-|

  grumble)



                Dsus2                Dsus2
  D5     D   D      D      D      D      D     
           Dsus4              Dsus4
e|----0- 2-3-2- 0---2- ----2-|3---2- 0---2- ----2- ----2-|
B|3---3--3-3-3--3---3------3-|3---3--3---3------3------3-|
G|2---2--2-2-2--2---2------2-|2---2--2---2------2------2-|
D|0--------------------------|0-----------------0------0-|
A|---------------------------|---------------------------|
E|---------------------------|---------------------------|
      I'll sing you a song,   With no words and no tune


           Esus4              Esus4
  E      E   E      E             E      E
      Bm        Bm                   Bm
e|4----- 4-5-4- ----4- ----4-|5---4- ----4- ----4- 4---4-|
B|5---7--5-5-5--7---5------5-|5---5--7---5------5--5---5-|
G|4---4--4-4-4--4---4------4-|4---4--4---4------4--4---4-|
D|0---0---------0------------|0------0-------------------|
A|---------------------------|---------------------------|
E|---------------------------|---------------------------|
    To sing in your party while you suss-out the moon







  A                           D
e|0----- 0---0- 0---0- 0---0-|2----- 2---2- 2---2- 2---2-|
B|2------2---2--2---2--2---2-|3------3---3--3---3--3---3-|
G|2------2---2--2---2--2---2-|2------2---2--2---2--2---2-|
D|2------2---2--2---2--2---2-|0------0---0--0---0--0---0-|
A|0------0---0--0---0--0---0-|---------------------------|
E|---------------------------|---------------------------|
         La............zy     sun     day    af... ternoon



  A                           C
e|0----- 0---0- 0----- 0---0-|0----- 0---0- 0---0- ----0-|
B|2------2---2--2------2---2-|1------1---1--1---1------1-|
G|2------2---2--2------2---2-|0------0---0--0---0------0-|
D|2------2---2--2------2---2-|2------2---2--2---2------2-|
A|0------0---0--0------0---0-|3------3---3--3---3------3-|
E|---------------------------|3------3---3--3---3------3-|
          I've   got    no    mind   to     wo...rry



  F                           G
e|1----- 1---1- 1----- 1---1-|3----- 3---3- 3----- 3-----|
B|1------1---1--1------1---1-|3------3---3--3------3-----|
G|2------2---2--2------2---2-|4------4---4--4------4-----|
D|3------3---3--3------3---3-|5------5---5--5------5-----|
A|3------3---3--3------3---3-|5------5---5--5------5-----|
E|1------1---1--1------1---1-|3------3---3--3------3-----|
         Close         my    eyes    and    drift  a....way



  Dbm 
e|4----- ------ ------ ------|------ ------ ------ ------|
B|5--------------------------|---------------------------|
G|6--------------------------|---------------------------|
D|6--------------------------|---------------------------|
A|4--------------------------|---------------------------|
E|---------------------------|---------------------------|

  G
e|3----- ------ ------ ------|------ ------ ------ ------|
B|3--------------------------|---------------------------|
G|4--------------------------|---------------------------|
D|5--------------------------|---------------------------|
A|5--------------------------|---------------------------|
E|3--------------------------|---------------------------|

  D
e|3----- ------ ------ 2---3/|5--3- --2--- 0----- ------|
B|3--------------------3---5/|7--5----3----2---3----2---|
G|2-----------------2--------|------------------4----2---|
D|0--------------------------|---------------------------|
A|---------------------------|---------------------------|
E|------------	

Видео для песни "Lazy Sunday":

 

Описание аккордов к песне (Генератор аккордов)

  • D ↓
    Аккорд D
  • G ↓
    Аккорд G
  • E ↓
    Аккорд E
  • C ↓
    Аккорд C
  • F ↓
    Аккорд F
  • F6 ↓
    Аккорд F6
  • F#m ↓
    Аккорд F#m
  • Asus4 ↓
    Аккорд Asus4
  • Asus2 ↓
    Аккорд Asus2
  • Dsus4 ↓
    Аккорд Dsus4
  • Esus4 ↓
    Аккорд Esus4
  • Gsus4 ↓
    Аккорд Gsus4
  • Dsus2 ↓
    Аккорд Dsus2
  • D5 ↓
    Аккорд D5
  • E7 ↓
    Аккорд E7
  • Bm ↓
    Аккорд Bm

 

Еще подборы:

 



Для связи с администратором: killger@gmail.com
©2013 - 2018 портал PesniGitara. Все тексты песен принадлежат их авторам. Копирование некоторых материалов портала только с разрешения администратора!