× Закрыть

I Am One (Smashing Pumpkins)

		
                                    I AM ONE
                      As recorded by The Smashing Pumpkins
                           (From the 2025 Album GISH)

Transcribed by Scott Bunting
This is my first real attempt at tabbing a song. I have been playing for almost 2 years now.
I realize this is not 100% correct, but i get credit because its hard to decipher two guitars
who are also using wah pedals. It will sound best if you give it a personal touch.
I appreciate any feedback. E-mail me at tiamat436@hotmail.com 

  Q=110
 4/4
  Gtr I
|-----|
|-----|
|-----|
|-----|
|-----|
|-----|


|----------------|------------|----------0---|-(0)----|
|-------0-(0)----|-(0)--------|-------0------|--------|
|-----3----------|------------|-----3--------|--------|
|---4------------|------------|---4----------|--------|
|-4--------------|------------|-2------------|--------|
|-2--------------|------------|-0------------|--------|


|----------------|------------|----------0---|-(0)-----------|
|-------0-(0)----|-(0)--------|-------0------|---------------|
|-----3----------|------------|-----3--------|---------------|
|---4------------|------------|---4----------|---------------|
|-4--------------|------------|-2------------|---------------|
|-2--------------|------------|-0------------|---------------|
|
| Gtr II
|----------------|------------|--------------|---------------|
|----------------|------------|--------------|---------------|
|----------------|------------|--------------|---------------|
|----------------|------------|--------------|---------------|
|----------------|------------|--------------|--------x--x--|
|----------------|------------|--------------|--------x--x--|


|----------------------------|----------------------------|
|----------------------------|----------------------------|
|----------------------------|----------------------------|
|--4-x-x--4-x--4-x-x-x--7--7-|--4-x-x--4-x--4-x-x-x--7--9-|
|--4-x-x--4-x--4-x-x-x--7--7-|--4-x-x--4-x--4-x-x-x--7--9-|
|--2-x-x--2-x--2-x-x-x--5--5-|--2-x-x--2-x--2-x-x-x--5--7-|
|
|----------------------------|----------------------------|
|----------------------------|----------------------------|
|-11-x-x-11-x-11-x-x-x-14-14-|-11-x-x-11-x-11-x-x-x-14-16-|
|-11-x-x-11-x-11-x-x-x-14-14-|-11-x-x-11-x-11-x-x-x-14-16-|
|--9-x-x--9-x--9-x-x-x-12-12-|--9-x-x--9-x--9-x-x-x-12-14-|
|----------------------------|----------------------------|


|----------------------------|----------------------------|
|----------------------------|----------------------------|
|----------------------------|----------------------------|
|--4-x-x--4-x--4-x-x-x--7--7-|--4-x-x--4-x--4-x-x-x--7--9-|
|--4-x-x--4-x--4-x-x-x--7--7-|--4-x-x--4-x--4-x-x-x--7--9-|
|--2-x-x--2-x--2-x-x-x--5--5-|--2-x-x--2-x--2-x-x-x--5--7-|
|
|----------------------------|----------------------------|
|----------------------------|----------------------------|
|-11-x-x-11-x-11-x-x-x-14-14-|-11-x-x-11-x-11-x-x-x-14-16-|
|-11-x-x-11-x-11-x-x-x-14-14-|-11-x-x-11-x-11-x-x-x-14-16-|
|--9-x-x--9-x--9-x-x-x-12-12-|--9-x-x--9-x--9-x-x-x-12-14-|
|----------------------------|----------------------------|


|-------------------------------|-----------------------------------|
|-------------------------------|-----------------------------------|
|-------------------------------|-----------------------------------|
|--4----x-x-4-x-4----x--x-x-7-7-|--4-x--x--4-----x-4------x-x-x-7-9-|
|--4----x-x-4-x-4----x--x-x-7-7-|--4-x--x--4-----x-4------x-x-x-7-9-|
|--2----x-x-2-x-2----x--x-x-5-5-|--2-x--x--2-----x-2------x-x-x-5-7-|
|
|-------------------------------|-----------------------------------|
|-------------------------------|-----------------------------------|
|-16b18-----------14------------|---------14h16---------------------|
|----------------------16-------|-16---16-------16---(16)-----------|
|-------------------------------|-----------------------------------|
|-------------------------------|-----------------------------------|


|----------------------------------------|-----------------------------------|
|----------------------------------------|-----------------------------------|
|----------------------------------------|-----------------------------------|
|--4-----x--x--4-----x----4-x--x-x--7--7-|--4-x--x--4-----x-4------x-x-x-7-9-|
|--4-----x--x--4-----x----4-x--x-x--7--7-|--4-x--x--4-----x-4------x-x-x-7-9-|
|--2-----x--x--2-----x----2-x--x-x--5--5-|--2-x--x--2-----x-2------x-x-x-5-7-|
|
|----------------------------------------|-----------------------------------|
|----------------------------------17-17-|-----------------------------------|
|-------------14h16-16b18-----18---------|---------14h16---------------------|
|-------14h16----------------------------|-16---16-------16---(16)-----------|
|-14h16----------------------------------|-----------------------------------|
|----------------------------------------|-----------------------------------|


||-----------------------------|----------------------------|
||o----------------------------|----------------------------|
||-----------------------------|----------------------------|
||---4-x-x--4-x--4-x-x-x--7--7-|--4-x-x--4-x--4-x-x-x--7--9-|
||o--4-x-x--4-x--4-x-x-x--7--7-|--4-x-x--4-x--4-x-x-x--7--9-|
||---2-x-x--2-x--2-x-x-x--5--5-|--2-x-x--2-x--2-x-x-x--5--7-|
|
||-----------------------------|----------------------------|
||o----------------------------|----------------------------|
||--11-x-x-11-x-11-x-x-x-14-14-|-11-x-x-11-x-11-x-x-x-14-16-|
||--11-x-x-11-x-11-x-x-x-14-14-|-11-x-x-11-x-11-x-x-x-14-16-|
||o--9-x-x--9-x--9-x-x-x-12-12-|--9-x-x--9-x--9-x-x-x-12-14-|
||-----------------------------|----------------------------|


|----------------------------|--------------------------------||
|----------------------------|-------------------------------o||
|----------------------------|--------------------------------||
|--4-x-x--4-x--4-x-x-x--7--7-|--4-x-x--4-x--4-x-x-x--7--9-----||
|--4-x-x--4-x--4-x-x-x--7--7-|--4-x-x--4-x--4-x-x-x--7--9----o||
|--2-x-x--2-x--2-x-x-x--5--5-|--2-x-x--2-x--2-x-x-x--5--7-----||
|
|----------------------------|--------------------------------||
|----------------------------|-------------------------------o||
|-11-x-x-11-x-11-x-x-x-14-14-|-11-x-x-11-x-11-x-x-x-14-16-----||
|-11-x-x-11-x-11-x-x-x-14-14-|-11-x-x-11-x-11-x-x-x-14-16-----||
|--9-x-x--9-x--9-x-x-x-12-12-|--9-x-x--9-x--9-x-x-x-12-14----o||
|----------------------------|--------------------------------||


||---------------------------------------|
||o--------------------------------------|
||---------------------------------------|
||---------------------------------------|
||o--------------------------------------|
||--12-0-0-0-12-0-0-12-0-0-0-0--0-0--0-0-|
|
||---------------------------------------|
||o--------------------------------------|
||-----------------------------13---13---|
||---------------------------------------|
||o----------------------------11---11---|
||---------------------------------------|


|----------------------------------------||
|---------------------------------------o||
|----------------------------------------||
|----------------------------------------||
|---------------------------------------o||
|-12-0-0-0-12-0-0-12-0-0-0-0--0-0--0-0---||
|
|----------------------------------------||
|---------------------------------------o||
|----------------------------------------||
|----------------------------12---14-----||
|----------------------------12---14----o||
|----------------------------------------||


|----------------|------------|----------0---|-(0)----|
|-------0-(0)----|-(0)--------|-------0------|--------|
|-----3----------|------------|-----3--------|--------|
|---4------------|------------|---4----------|--------|
|-4--------------|------------|-2------------|--------|
|-2--------------|------------|-0------------|--------|


|----------------|------------|----------0---|-(0)----------|
|-------0-(0)----|-(0)--------|-------0------|--------------|
|-----3----------|------------|-----3--------|--------------|
|---4------------|------------|---4----------|--------------|
|-4--------------|------------|-2------------|--------------|
|-2--------------|------------|-0------------|--------------|
|
| Gtr II
|----------------|------------|--------------|--------------|
|----------------|------------|--------------|--------------|
|----------------|------------|--------------|--------------|
|----------------|------------|--------------|--------------|
|----------------|------------|--------------|--------x----|
|----------------|------------|--------------|--------x----|


|-----------------------------------|-------------------------|
|-----------------------------------|-------------------------|
|-----------------------------------|-------------------------|
|--4----x-x-4-x-4-x-x-x--7-----7----|--4-x-x-4-x-4-x-x-x--7-9-|
|--4----x-x-4-x-4-x-x-x--7-----7----|--4-x-x-4-x-4-x-x-x--7-9-|
|--2----x-x-2-x-2-x-x-x--5-----5----|--2-x-x-2-x-2-x-x-x--5-7-|
|
|-----------------------------------|-------------------------|
|-----------------------------------|-------------------------|
|-16b18-----------------16-14-------|-------------------------|
|-----------------------------16-14-|--------------------14---|
|-----------------------------------|-16----------------------|
|-----------------------------------|-------------------------|


|------------------------------|---------------------------|
|------------------------------|---------------------------|
|------------------------------|---------------------------|
|--4-----x--x--4-x-4-x-x-x-7-7-|--4----x-x-4-x-4-x-x-x-7-9-|
|--4-----x--x--4-x-4-x-x-x-7-7-|--4----x-x-4-x-4-x-x-x-7-9-|
|--2-----x--x--2-x-2-x-x-x-5-5-|--2----x-x-2-x-2-x-x-x-5-7-|
|
|------------------------------|---------------------------|
|------------------------------|-17b19---------------------|
|------------------------------|---------------------------|
|-14---------------------------|---------------------------|
|----16-14---------------------|---------------------------|
|----------17-17---------------|---------------------------|


||-----------------------------|----------------------------|
||o----------------------------|----------------------------|
||-----------------------------|----------------------------|
||---4-x-x--4-x--4-x-x-x--7--7-|--4-x-x--4-x--4-x-x-x--7--9-|
||o--4-x-x--4-x--4-x-x-x--7--7-|--4-x-x--4-x--4-x-x-x--7--9-|
||---2-x-x--2-x--2-x-x-x--5--5-|--2-x-x--2-x--2-x-x-x--5--7-|
|
||-----------------------------|----------------------------|
||o----------------------------|----------------------------|
||--11-x-x-11-x-11-x-x-x-14-14-|-11-x-x-11-x-11-x-x-x-14-16-|
||--11-x-x-11-x-11-x-x-x-14-14-|-11-x-x-11-x-11-x-x-x-14-16-|
||o--9-x-x--9-x--9-x-x-x-12-12-|--9-x-x--9-x--9-x-x-x-12-14-|
||-----------------------------|----------------------------|


|----------------------------|--------------------------------||
|----------------------------|-------------------------------o||
|----------------------------|--------------------------------||
|--4-x-x--4-x--4-x-x-x--7--7-|--4-x-x--4-x--4-x-x-x--7--9-----||
|--4-x-x--4-x--4-x-x-x--7--7-|--4-x-x--4-x--4-x-x-x--7--9----o||
|--2-x-x--2-x--2-x-x-x--5--5-|--2-x-x--2-x--2-x-x-x--5--7-----||
|
|----------------------------|--------------------------------||
|----------------------------|-------------------------------o||
|-11-x-x-11-x-11-x-x-x-14-14-|-11-x-x-11-x-11-x-x-x-14-16-----||
|-11-x-x-11-x-11-x-x-x-14-14-|-11-x-x-11-x-11-x-x-x-14-16-----||
|--9-x-x--9-x--9-x-x-x-12-12-|--9-x-x--9-x--9-x-x-x-12-14----o||
|----------------------------|--------------------------------||


||---------------------------------------|
||o--------------------------------------|
||---------------------------------------|
||---------------------------------------|
||o--------------------------------------|
||--12-0-0-0-12-0-0-12-0-0-0-0--0-0--0-0-|
|
||---------------------------------------|
||o--------------------------------------|
||-----------------------------13---13---|
||---------------------------------------|
||o----------------------------11---11---|
||---------------------------------------|


|----------------------------------------||
|---------------------------------------o||
|----------------------------------------||
|----------------------------------------||
|---------------------------------------o||
|-12-0-0-0-12-0-0-12-0-0-0-0--0-0--0-0---||
|
|----------------------------------------||
|---------------------------------------o||
|----------------------------------------||
|----------------------------12---14-----||
|----------------------------12---14----o||
|----------------------------------------||


||-----------------------------|----------------------------|
||o----------------------------|----------------------------|
||-----------------------------|----------------------------|
||---4-x-x--4-x--4-x-x-x--7--7-|--4-x-x--4-x--4-x-x-x--7--9-|
||o--4-x-x--4-x--4-x-x-x--7--7-|--4-x-x--4-x--4-x-x-x--7--9-|
||---2-x-x--2-x--2-x-x-x--5--5-|--2-x-x--2-x--2-x-x-x--5--7-|
|
||-----------------------------|----------------------------|
||o----------------------------|----------------------------|
||--11-x-x-11-x-11-x-x-x-14-14-|-11-x-x-11-x-11-x-x-x-14-16-|
||--11-x-x-11-x-11-x-x-x-14-14-|-11-x-x-11-x-11-x-x-x-14-16-|
||o--9-x-x--9-x--9-x-x-x-12-12-|--9-x-x--9-x--9-x-x-x-12-14-|
||-----------------------------|----------------------------|


|----------------------------|--------------------------------||
|----------------------------|-------------------------------o||
|----------------------------|--------------------------------||
|--4-x-x--4-x--4-x-x-x--7--7-|--4-x-x--4-x--	

Видео для песни "I Am One":

 

Описание аккордов к песне (Генератор аккордов)

 

Еще подборы:

 



Для связи с администратором: killger@gmail.com
©2013 - 2018 портал PesniGitara. Все тексты песен принадлежат их авторам. Копирование некоторых материалов портала только с разрешения администратора!