× Закрыть

Chocolate (Snow Patrol)

		
6. Chocolate

INTRO 
e------------------
b------------------
g-7----------------
D-7-------5--------
A-5-------5--------
E---------3--------

RIFF

e------------------
b------------------
g------------------
D-2/4/2-0h2--------
A-------------2----
E------------------

VERSE

Continue playing intro (D and G)

Second guitar:
e-------------------------------------
b---7-----7---------7-----10p7-------
g-7-----7-----7---7-----7------7-----
D-----------------------------------
A-----------------------------------
E------------------------------------

e----------------------------------|-------------
b---7-----7---------7-----10p7-----|---8-----8---
g-7-----7-----7---7-----7------7---|-7-----7-----
D----------------------------------|-------------
A----------------------------------|-------------
E----------------------------------|------------


CHORUS
e-------------------------
b-------------------------
g-7----11----12-----------
D-7----11----12-----------
A-5----9-----10-----------
E-------------------------

Видео для песни "Chocolate":

 

Описание аккордов к песне (Генератор аккордов)

  • D ↓
    Аккорд D

 

Еще подборы:

 



Для связи с администратором: killger@gmail.com
©2013 - 2022 портал PesniGitara. Все тексты песен принадлежат их авторам. Копирование некоторых материалов портала только с разрешения администратора!