× Закрыть

Forget December (Something Corporate)

		
Song:Forget December
Band:Something Corporate
Tabbed by:Eric M. (rufioyc@hotmail.com)


Intro/Verse:(1st Part)
e|--------------------------------------------------------------------|
B|-----------------(5-5-5-5-5-5-5-5)----------------------------------|
G|(7-7-7-7-7-7-7-7)-5-5-5-5-5-5-5-5-(5-5-5-5-5-5-5-5)-----------------|
D|-7-7-7-7-7-7-7-7--3-3-3-3-3-3-3-3--5-5-5-5-5-5-5-5-(5-5-5-5-5-5-5-5)|
A|-5-5-5-5-5-5-5-5-------------------3-3-3-3-3-3-3-3--5-5-5-5-5-5-5-5-|
E|----------------------------------------------------3-3-3-3-3-3-3-3-|
PM(...................................................................)

Verse:(2nd Part) (strumming not shown)
e|----------------------------|
B|-------[5-------------------|
G|--7----[5-or-10]----5-------|
D|--7----[3----10]----5----5--|
A|--5-----------8]----3----5--|
E|-------------------------3--|

Chorus:Guitar 1
e|-------------------------------------------------|
B|-[5----------------------------------------------|
G|-[5-or-10]-------5---------------7-------5-------|
D|-[3----10]-(x8)--5-(x8)--5-------7-(x4)--5-(x4)--|
A|--------8]-------3-------5-(x8)--5-------3-------|
E|-------------------------3-----------------------|

Chorus:Guitar 2	
e|---------------------------------|
B|---------------------------------|
G|-5----------------7-------5------|
D|-5-(x16)--5-------7-(x4)--5-(x4)-|
A|-3--------5-(x8)--5-------3------|
E|----------3----------------------|

Interlude:(x2) (anymore...anymore...)
e|--------------------------------------------|
B|--------------------------------------------|
G|-9-10-9-10-9-10-9-10-9-10-9-10-9-10-9-10-12-|
D|--------------------------------------------|
A|--------------------------------------------|
E|--------------------------------------------|

This is probably about 90% correct. If anyone has any corrections
please email me, thanx.

Видео для песни "Forget December":

 

Описание аккордов к песне (Генератор аккордов)

 

Еще подборы:

 



Для связи с администратором: killger@gmail.com
©2013 - 2018 портал PesniGitara. Все тексты песен принадлежат их авторам. Копирование некоторых материалов портала только с разрешения администратора!