× Закрыть

Destruction Preventer (Sonata Arctica)

		
**********************************************************************
* SONATA ARCTICA - DESTRUCTION PREVENTER (From the album: ECLIPTICA) *
**********************************************************************
 Music and Words By: Sonata Arctica

Transcribed By: Niclas Buss
Days tabbed: 4,16-17.3.2000
email: nbuss@ironmaiden.com

Please mail me if you can find mistakes!

-----------------------------------------

 Tune down 1/2 step!

		    Clean Sound
E----------------------------------------------------------------------------------|
B------------------|---------------------------------------------------------------|
G--Keyboard-Intro--|--7-----9-----10-----9------7-----9-----10-----9-------------7-|
D-----(28-Sec.)----|----7-7---7-7----7-7---7-7----8-8---8-8----8-8---8-8--10-10---|
A------------------|---------------------------------------------------------------|
E----------------------------------------------------------------------------------|
		     pm............................................................

E----------------------------------------------------------------------------------|
B----------------------------------------------------------------------------------|
G-------9-------7------------10-----9-----7------------/7-----9-----10-----9-----7-|
D-10-10---10-10---10-10-------------------------10--------8-8---8-8----8-8---8-8---|
A-----------------------8-8----8-8---8-8---8-8----8-8-----------------------------|
E----------------------------------------------------------------------------------|
 ..................................................................................

E----------------------------------------------------------------------------------|
B----------------------------------------------------------------------------------|
G-----9-----10-----9------6-6------6-6----6-6-----6-6----6-6-----6-6----6-6-----6-|
D-8-8---8-8----8-8---8-8-------7-7-------------7-7------------7-7------------7-7---|
A---------------------------------------7~-------------7~-------------7~-----------|
E----------------------------------------------------------------------------------|
 ..................................................................................

					      x4		     Dist.on
E----------------------------------------------------------------------------------|
B-------|----------------------------------------|-----------------|---------------|
G-6-----|*--/7-----7/9-----9/10-----109-----9--*|--Keyboard-Riff--|---------------|
D-------|*-----7-7-----7-7------7-7------7-7----*|-----------------|-----------7-/8|
A---7~--|----------------------------------------|-----------------|--x--/5-8-----|
E---------------------------------------------------------------------x-----------|
 ..............................................|			    pm

E----------------------------------------------------------------------------------|
B----------------------------------------------------------------------------------|
G----------------7-5--------------------------------------7-5------------------7-|
D-7-5----------7------8-7-5-7-8-------7-8-7-5-----------7------8-7-5-7-8---5-8---|
A-----87--5-8--------------------5-8----------8-7---5-8---------------------------|
E----------------------------------------------------------------------------------|
            pm                     pm                 pm

E----------------------------------------------------------------------------------|
B-6-5-----------------------------------------------------------------------------|
G------7-5-----------------6-7-9~~-------------------------------------------------|
D----------8--7-8-7-5-7-8------------7-----------8~~------7-----------8~~------7-|
A-------------------------------------5-5-5-5-5-5-5~~------5-5-5-5-5-5-5~~------5-|
E----------------------------------------------------------------------------------|
					pm........|          pm........|

					  Verse 1
E----------------------------------------------------------------------------------|
B---------------------------------------|------------------------------------------|
G---------------------------------------|*-----------------------------------------|
D-----------8~~-------7-----------8~~---|*--7-----------7-7--------------7---------|
A-5-5-5-5-5-5~~-------5-5-5-5-5-5-5~~---|---5-5-5-5-5-5-5-5-5-5-5-5-5-5--5-5-5-5-5-|
E----------------------------------------------------------------------------------|
 pm........|           pm........|	    pm.........|   pm..........|  pm.......

			        x2   Bridge
E----------------------------------------------------------------------------------|
B----------------------------------|-----------------------------------------------|
G---------------------------------*|-----------------------------------------------|
D---7-7---------------5----2~~---*|-----------------------------------------------|
A-5-5-5-5-5-7-8-7-5---3----0~~----|-----------------------------------------------|
E-------------------------------------6-6-6-6-6-6-6-6-6-6-6-6-6-6-6-6-6-6-6-6-6-6-|
 ..|   pm..........|                 pm............................................

				      Verse 2
E----------------------------------------------------------------------------------|
B-----------------------------------|----------------------------------------------|
G-----------------------------------|----------------------------------------------|
D----------------/10----------------|--7-----------7-7--------------7-----------7-7|
A----------------/8------7---7---7--|--5-5-5-5-5-5-5-5-5-5-5-5-5-5--5-5-5-5-5-5-5-5|
E-6-6-6-6-6-6-6----------5---5---5-------------------------------------------------|
 ..............|			pm........|   pm..........|  pm........|

E----------------------------------------------------------------------------------|
B----------------------------------------------------------------------------------|
G----------------------------------------------------------------------------------|
D--------------5----2~~---7-----------7-7--------------7-----------7-7------------|
A-5-5-7-8-7-5--3----0~~---5-5-5-5-5-5-5-5-5-5-5-5-5-5--5-5-5-5-5-5-5-5-5-5-7-8-7-5|
E----------------------------------------------------------------------------------|
 pm..........|              pm........|   pm..........|  pm........|   pm..........|

					    Chorus (1)
E----------------------------------------------------------------------------------|
B------------------------------|----------|----------------------------------------|
G------------------------------|--Bridge--|----------------------------------------|
D---5-----------5-5~~---2~~---|----------|---7---------------------10-------------|
A---3-3-3-3-3-3-3-3~~---0~~---|----------|---5----5-------/10-------8-----8----8-|
E--------------------------------------------------6---6-6-/8----8---------6----6-|
     pm.........|				      pm..|     pm

E----------------------------------------------------------------------------------|
B----------------------------------------------------------------------------------|
G----------------------------------------------------------------------------------|
D---/10---10-------/7-----------7-------------8-----------8------------------------|
A---/8----7---10---/5-5-5-5-5-5-5--5-5-5-5-5--5-----------5------------/10---------|
E-------------8-------------------------------6-6-6-6-6-6-6--6-6-6-6-6--/8-8-8-8-8-|
		     pm........|  pm........|  pm........|  pm........|   pm.......

E----------------------------------------------------------------------------------|
B----------------------------------------------------------------------|-----------|
G----------------------------------------------------------------------|-----------|
D-----------------/10-----------10-------------------------------------|-------7-8-|
A---10-------------/8-8-8-8-8-8-8---8-8-8-8-8---8-----8-----7----7~~--|--/5-8-----|
E-8-8---8-8-8-8-8-------------------------------6-----6-----5----5~~--------------|
 ..|   pm........|   pm........|   pm........|				    pm

			    Guitar Solo 1
E----------------------------/17------/18-17-15------------------------------------|
B-------------------------|----/----------------18-17-1514-15-17-15-14------------|
G-------------------------|----/----------------------------------------15-14-12---|
D-7-5-------7------7---|----/-------------------------------------------------15|
A------8-7---5--7--5---|--------------------------------------------------------|
E----------------5----------------------------------------------------------------|

E----------------------------------------------------------------------------------|
B----------------------------------------------------------------------------------|
G-------------12-14-15-14-12----------15-14-12----------------12-14-12-------------|
D-14-12-14-15----------------15-14-12----------15-14-12-14-15----------15-14-12-10|
A----------------------------------------------------------------------------------|
E----------------------------------------------------------------------------------|
									     pm....

E----------------------------------------------------------------------------------|
B--------------------------------------------------------------|-------------------|
G-------14-12-10-----------------------------------------------|--Keyboard-Solo-1--|
D-12-14----------14-12-10--------------------------------------|-------------------|
A-------------------------13-12-10----10-12-13-12-10-----------|-------------------|
E----------------------------------13----------------13-12------------------------|
 ......|        pm........................................|

  Guitar Solo 2
E--/18-15----------------15-/17-15----------------15-/18-15-------/17-15-----------|
B---------15----------15-----------15----------15-----------15-----------15--------|
G------------15----15-----------------15----15-----------------15-----------15-----|
D---------------17-----------------------17------------------------------------17~-|
A----------------------------------------------------------------------------------|
E----------------------------------------------------------------------------------|

							      Guitar Solo 3
E--------------------------------------------------------------/-22-20-18----------|
B-----------------------------------------------------------|-------------22-20-18|
G-14/15-12---------------------/14h15p14p12-14~~----------|----------------------|
D-----------12----------------------------------------------|----------------------|
A--------------13----/12~~----------------------------------|----------------------|
E-----------------15---------------------------------------------------------------|

E----------------------------------------------------------------------------------|
B-17-------------------------------------------------------------------------------|
G----19-17-1514----------14-15-17-15-1412----------------------------------------|
D----------------17-15-17-------------------15-14-1210----------------------------|
A-------------------------------------------------------13-12-10----------------10-|
E----------------------------------------------------------------13-12-10-12-13----|
						       pm..........................

E----------------------------------------------------------------------------------|
B----------------------------------------------------------------------------------|
G-------------------12-14-15-14-1210----------------------------------------------|
D-------10-12-14/15-------------------14-12-10-------------------------------------|
A-12-13----------------------------------------13-12-10-------------------------10-|
E-------------------------------------------------------13-12-10-12-13-10-12-13----|
 ......|				      pm...................................

E----------------------------------------------------------------------------------|
B----------------------------------------------------------------------------------|
G----------------------------------10-12-14-10-12-14-12----------------12-14~~~~--|
D----------------10-12-14-10-14-12----------------------15-14-12-14-15-------------|
A-12-13-10-12-13-------------------------------------------------------------------|
E----------------------------------------------------------------------------------|
 ...............|

E----------------------------------------------------------------------------------|
B-------------------|--------------------------------------------------------------|
G--Keyboard-Solo-2--|--------------------------------------------------------------|
D-------------------|--------------------------------------------------------------|
A-------------------|--------------------------------------------------------------|
E----------------------6-6-6-6-6-6-6-6-6-6-6-6-6-6-6-6-6-6-6-6-6-6-6-6-6-6-6-6-6-6|
		      pm...........................................................|

E----------------------------------------------------------------------------------|
B------------------|--Verse-3--|-------------------------------------|-------------|
G------------------|---with----|-------------------------------------|-------------|
D-/10--------------|--Verse-1--|--3~~---/10--------------------------|--7---7------|
A-/8-----7-----7---|---riff----|--1~~---/8-----7--------------7~~----|--5---5----7-|
E--------5-----5-------(x2)--------------------5--/6-5-3-5----5~~-------5---5----5-|

						   w/Fill 1
E----------------------------------------------------------------------------------|
B----------------------------------------------------------------------------------|
G-------/5------------------------------------------------------------/5-----------|
D-------/3--5-3--------------7----------------------7---7-------------/3-----------|
A-7--7-----------5-----8-----5---------------4-5-7--5---5---7--7--7--------5--5--5-|
E-5--5-----------3-----6-----------5-6-5-3-5--------5---5---5--5--5--------3--3--3	

Видео для песни "Destruction Preventer":

 

Описание аккордов к песне (Генератор аккордов)

 

Еще подборы:

 



Для связи с администратором: killger@gmail.com
©2013 - 2022 портал PesniGitara. Все тексты песен принадлежат их авторам. Копирование некоторых материалов портала только с разрешения администратора!