× Закрыть

The Power Of One (Sonata Arctica)

		
***************************************************************
* SONATA ARCTICA - THE POWER OF ONE (From the ALBUM: SILENCE) *
***************************************************************
 Music and Words By: Sonata Arctica/T.Kakko

Transcribed By: Niclas Buss
Day tabbed: 27-28.7.2001
email: nbuss@ironmaiden.com

Please mail me if you can find mistakes!

-----------------------------------------

 Tune down 1/2 step!

               Clean Sound:
E-----------------------0---1--------------------------------0---1------------------|
B------------|------3---------2----------3-------1-------3---------2---------3------|
G---Intro----|----2---2---2------------3-------2-------2---2---2-----------3-------2|
D--(45-sec)--|--0--------------------3-------2-------0-------------------3-------2--|
A------------|--------------------1-------0--------------------------1-------0----|
E-----------------------------------------------------------------------------------|

E------------0---1--------------------------------0---1-----------------------------|
B-1------3---------2---------3--------1-------3---------2---------3-------1~~-------|
G------2---2---2-----------3--------2-------2---2---2-----------3-------2-----------|
D----0-------------------3--------2-----/-0-------------------3-------2-------------|
A---------------------1--------0--------------------------1-------0---------------|
E-----------------------------------------------------------------------------------|
                                                                     ____________ __
  Verse 1                                                           |1.          |2.
E-----------0---1-------------------------------0---1---------------|------------|--|
B-------3---------2----------3-------1------3---------2----------3--|--------1---|--|
G*----2---2---2------------3-------2------2---2---2------------3----|------2----*|--|
D*--0--------------------3-------2------0--------------------3------|----2------*|--|
A---------------------1-------0--------------------------1--------|--0---------|-/|
E-------------------------------------------------------------------|------------|--|
 __________
           |
E----------||-----3-----------------6----------5------------5----------3----------6-|
B-------1--||-------3-----------------6----------6------------5----------3----------|
G-----0----||---------3-----------------7~---------7------------5~---------3~-------|
D---2------||-----------5~----------------------------7-----------------------------|
A-3--------||--------------------------------5------------0-------------------------|
E----------||---3-----------/-5~--6---------------------------------3----------6---|

                                  Dist.on:      Gtr.1
E---------------0------0------0---------------|-------------------------------------|
B-6-----------3------3------3-----------------|-------------------------------------|
G---7~------2------2------2--------5-5-5-/-7--|--7~---------------------7-----------|
D--------0------------------------5-5-5-/-7--|--7~-----8--------2------7-----8-----|
A----------------------------------3-3-3-/-5--|--5~-----8--------3------5-----8-----|
E----------------------------------3-3-3-/-5--|--5~-----6--------5------5-----6-----|
                                  pm....|     | Gtr.2                               |
                                             E|-------------------------------------|
                                             B|-------------------------------------|
                                             G|-------------------------------------|
                                             D|-------------------------------------|
                                             A|--5~-----8~---7-5-------/5~----8~--7-|
                                             E|------------------8~--5--------------|

E-----------------------------------------------------------------------------------|
B-----------------------------------------------------------------------------------|
G-----------7------------------------7--------------5----------------5--------------|
D---2-------7-----8---------2--------7----8---------5-------8--------5--------8-----|
A---3-------5-----8---------3--------5----8---------3-------8--------3--------8-----|
E---5-------5-----6---------5--------5----6-----------------6-----------------6-----|

E-----------------------------------------------------------------------------------|
B-----------------------------------------------------------------------------------|
G-----------------------------------------------------------------------------------|
D---------------------------------------------------5~---------------5-----5--7--8--|
A-5-------/-5~----8~----7-5--------/-5~----8~---7-8-----8-7-8--7--8-----8-----------|
E---8~--5-------------------8~---5--------------------------------------------------|
                                               pm..|   pm..|

E----------------------||
B----------------------||
G----------------------||
D----------------------||
A----------------------||
E----3~---------------||
                       ||  Verse 2
E----------------------||-----------------------------------------------------------|
B----------------------||-----------------------------------------------------------|
G----------------------||*----------------------------------------------------------|
D--7--5-------A.H.-----||*----------------------------------------------------------|
A--------8--7--5~-----||--5-5-5--5-5-5-5--5-5-5--5-5-5-5--5-5-5--5-5-5-5--5-5-5--5-|
E----------------------||-----------------------------------------------------------|
                          pm........................................................

                                                                    x2   Bridge (1)
E------------------------------------------------------------------------Gtr.1------|
B----------------------------------------------------------------------|------------|
G---------------------------------------------------------------------*|------------|
D---------------------------------------------------------------------*|---5--------|
A-5-5-5-5--5-5-5--5-5-5-5--5-5-5--5-5-5-5--5-5-5-5-5-5--5-5-5--5-5-5---|---5--------|
E----------------------------------------------------------------------|---3--------|
 ...................................................................|  | Gtr.2      |
                                                                      E|------------|
                                                                      B|------------|
                                                                      G|------------|
                                                                      D|---5--------|
                                                                      A|---5--3-5~--|
                                                                      E|---3-------3|
                                                                             pm

E-----------------------------------------------------------------------------------|
B-----------------------------------------------------------------------------------|
G----8---------------------------8------------------------8-------------------------|
D----8-------------5-------------8------------5-----------8-------------5-----------|
A----6-------------5-------------6------------5-----------6-------------5-----------|
E----6-------------3-------------6------------3-----------6-------------3-----------|

E-----------------------------------------------------------------------------------|
B-----------------------------------------------------------------------------------|
G-----------------------------------------------------------------------------------|
D------------------5----------------------------------------------------------------|
A----6-----5~-6~---5--3-5~-A.H.--6-5---5~-6~--6-5-3-5~-----6-5---5~-6~--6-5-3-5~----|
E~-------8---------3--------3~-------8-----------------3~------8-----------------3~-|
        pm           pm             pm           pm           pm           pm

E---------------||
B---------------||
G--8------------||
D--8------------||
A--6------------||
E--6------------||
                ||  Chorus (1)                                                  Two
E---------------||------------------------------------------------------------------|
B---------------||------------------------------------------------------------------|
G---------------||---5------5---5---5--3----3---3------8------8--------------------|
D---------------||---5------5---5---5--3----3---3------8------8------6-----6----5-|
A--6-5---5~-6~--||---3-3-3--3-3-3-3-3--1--1-1-1-1-1-1--6--6-6-6-6-6--6-----6----6-|
E------8--------||----------------------------------------------------4-4-4-4-4----|
      pm              pm..|  pm  pm       pm  pm  pm..|   pm..| pm..|   pm..| pm

 Guitars
E-----------------------------------------------------------------------------------|
B-----------------------------------------------------------------------------------|
G------5------5---5------3----3~------/-8-----8------------------------/--5--------|
D-3-5--5------5---5------3----3~------/-8-----8-------6----------------/--5--------|
A-5-6--3-3-3--3-3-3-3-3--1--1-1~--1-1-/-6---6-6-6-6---6----------------/--3--3-3-3-|
E------------------------------------------------------4--4-4-4--4-4-4--------------|
         pm..|  pm  pm..|    pm   pm..|     pm  pm..|    pm...........|      pm....|

                                                                               Verse
E-----------------------------------------------------------------------------------|
B----------------------------------------------------------------------------|------|
G-5---------3-----3------------/-8------8-----------------------------------|------|
D-5---------3-----3------------/-8------8-------5----5--5--/--6-------3---|--7---|
A-3-3-3-3---1-1-1-1--1--1--1-1-/-6--6-6-6--6-6--5----5--5--/--6-------3---|--5-5-|
E------------------------------------------------3--3-3--3--/--4-------1----------|
   pm....|    pm..|  pm........|    pm..|  pm..|    pm                           pm.

  3
E-----------------------------------------------------------------------------------|
B-----------------------------------------------------------------------------------|
G-----------------------------------------------------------------------------------|
D-----------7---------7-----/8-------------8---------7h8p7p5-----7-------------7----|
A-5-5-5-5-5-5-5-5-5-5-5-5-5--5-5-5-5-5-5-5-5-5-5-5-5---------8p7p5-5-5-5-5-5-5-5-5-5|
E-----------------------------------------------------------------------------------|
 ..........| pm......| pm..|  pm..........| pm......|             pm..........| pm..

E-----------------------------------------------------------------------------------|
B-----------------------------------------------------------------------------------|
G-----------------------------------------------------------------------------------|
D-----7-----/8-------------8---------7h8p7p5-----7-------------7---------7-----/8---|
A-5-5-5-5-5--5-5-5-5-5-5-5-5-5-5-5-5---------8p7p5-5-5-5-5-5-5-5-5-5-5-5-5-5-5--5-5-|
E-----------------------------------------------------------------------------------|
 ....| pm..|  pm..........| pm......|             pm..........| pm......| pm..|  pm.

E-----------------------------------------------------------------------------------|
B-----------------------------------------------------------------------------------|
G-----------------------------------------------------------------------------------|
D-----------8---------7h8p7p5-----7-------------7---------7-----/8-------------8----|
A-5-5-5-5-5-5-5-5-5-5---------8p7---5-5-5-5-5-5-5-5-5-5-5-5-5-5--5-5-5-5-5-5-5-5-5-5|
E-----------------------------------------------------------------------------------|
 ..........| pm......|           pm............| pm......| pm..|  pm..........| pm..

                 Bridge (2)                                          Chorus (2)
E-----------------------------------------------------------------------------------|
B--------------|---------------------------------------------------|----------------|
G--------------|----------8-----------8-----------8-----------8----|---5------------|
D-------8------|----5-----8-----5-----8-----5-----8-----5-----8----|---5------------|
A-5-5-5-5-5-5--|----5-----6-----5-----6-----5-----6-----5-----6----|---3-3-3-3-3-3-3|
E-------------------3-----6-----3-----6-----3-----6-----3-----6---------------------|
 ......| pm..|                                                          pm..........|

E-----------------------------------------------------------------------------------|
B-----------------------------------------------------------------------------------|
G--5---------5------3-------------3---------3-----/-8-------------8---------8------|
D--5---------5------3-------------3---------3-----/-8-------------8---------8------|
A--3-3-3-3-3-3-3-3--1-1-1-1-1-1-1-1-1-1-1-1-1-1-1-/-6-6-6-6-6-6-6-6-6-6-6-6-6-6-6--|
E-----------------------------------------------------------------------------------|
    pm......| pm..|   pm..........| pm......| pm..|   pm..........| pm......| pm...|

E-----------------------------------------------------------------------------------|
B-----------------------------------------------------------------------------------|
G--------------------------------/--5-------------5---------5------3-------------3-|
D-6-------------6---------6------/--5-------------5---------5------3-------------3-|
A-6-------------6---------6------/--3-3-3-3-3-3-3-3-3-3-3-3-3-3-3--1-1-1-1-1-1-1-1-|
E-4-4-4-4-4-4-4-4-4-4-4-4-4-4-4-----------------------------------------------------|
   pm..........| pm......| pm..|     pm..........| pm......| pm..|   pm..........|

E--------------------------------------------------------------------	

Видео для песни "The Power Of One":

 

Описание аккордов к песне (Генератор аккордов)

 

Еще подборы:

 



Для связи с администратором: killger@gmail.com
©2013 - 2022 портал PesniGitara. Все тексты песен принадлежат их авторам. Копирование некоторых материалов портала только с разрешения администратора!